Log in

One click and you are in

Login with Facebook Login with Google

Why sign up and log in

Guitar Tabs Explorer
Ryan Adams bass tabs for How do you keep love alive

How Do You Keep Love Alive bass tab by Ryan Adams

Ryan Adams bass tabs for How do you keep love alive

Bass tabs

-----------------------------------------------------------------------------
          HOW DO YOU KEEP LOVE ALIVE - Ryan Adams
-----------------------------------------------------------------------------

Ryan Adams & The Cardinals
"How Do You Keep Love Alive"
(Cold Roses, 2005)

Tabbed by: crimson-dync

Tuning: Standard

[Note: The "." means silence.]



INTRO 1
G|-----------------|-----------------|-----------------|-----------------|
D|-----------------|-----------------|-----------------|-----------------|
A|-6---------------|(6)--------------|-2---------------|-4-----------\---|
E|-----------------|-----------------|-----------------|-----------------|

G|-----------------|-----------------|-----------------|-----------------|
D|-----------------|-----------------|-----------------|-----------------|
A|-6---------------|(6)--------------|-2-------------/-|-4---------------|
E|-----------------|-----------------|-----------------|-----------------|

G|-----------------|
D|-----------------|
A|(4)--------------|
E|-----------------|

VERSE 1 (0:17)
G|-----------------|-----------------|-----------------|-----------------|
D|-----------------|-----------------|-4---------------|-----------------|
A|-2---------------|-4---------------|-----------------|-2---------------|
E|-----------------|-----------------|-----------------|-----------------|

G|-----------------|-----------------|-----------------|-----------------|
D|-----------------|-----------------|-4-----------\---|-----------------|
A|-2---------------|-4---------------|-----------------|-2---------------|
E|-----------------|-----------------|-----------------|-----------------|


BRIDGE 1 (0:33)
G|-----------------|-----------------|-----------------|-----------------|
D|-----------------|-4---------------|-----------------|-----------------|
A|-2-------4-------|-----------------|-2---------------|(2)--------------|
E|-----------------|-----------------|-----------------|-----------------|

G|-----------------|-----------------|-----------------|-----------------|
D|-----------------|-4-----------\---|-----------------|-----------------|
A|-2-------4-------|-----------------|-2---------------|(2)--------------|
E|-----------------|-----------------|-----------------|-----------------|

G|-----------------|-----------------|
D|-----------------|-----------------|
A|-2-------.---4---|(4)--------------|
E|-----------------|-----------------|


CHORUS 1 (0:51)
G|-----------------|-----------------|-----------------|-----------------|
D|-----------------|-----------------|-----------------|-----------------|
A|-6---------------|(6)--------------|-2---------------|-4-----------\---|
E|-----------------|-----------------|-----------------|-----------------|

G|-----------------|-----------------|-----------------|-----------------|
D|-----------------|-----------------|-----------------|-----------------|
A|-6---------------|(6)--------------|-2-------------/-|-4---------------|
E|-----------------|-----------------|-----------------|-----------------|

G|-----------------|-----------------|
D|-----------------|-----------------|
A|-----------------|-----------------|
E|-----------------|-----------------|


INTRO 2 (1:10)
G|-----------------|-----------------|-----------------|-----------------|
D|-4---------------|-----------------|-----------------|-----------------|
A|-----------------|-2---------------|-4---------------|-2-------2-------|
E|-----------------|-----------------|-----------------|-----------------|

G|-----------------|-----------------|-----------------|-----------------|
D|-4---------------|-----------------|-----------------|-----------------|
A|-----------------|-2-----------2-/-|-4---------------|(4)--------------|
E|-----------------|-----------------|-----------------|-----------------|


VERSE 2 (1:26)
G|-----------------|-----------------|-----------------|-----------------|
D|-----------------|-----------------|-4---------------|-------------4---|
A|-2---------------|-4---------------|-----------------|-2-------.-------|
E|-----------------|-----------------|-----------------|-----------------|

G|-----------------|-----------------|-----------------|-----------------|
D|-----------------|-----------------|-4---------------|-----------------|
A|-2---------------|-4---------------|-----------------|-2---------------|
E|-----------------|-----------------|-----------------|-----------------|


BRIDGE 2 (1:41)
G|-----------------|-----------------|-----------------|-----------------|
D|-----------------|-4-----------4-/-|-----------------|---------4-------|
A|-2-------4-------|-----------------|-2---------------|-2---------------|
E|-----------------|-----------------|-----------------|-----------------|

G|-----------------|-----------------|-----------------|-----------------|
D|-----------------|-4---------------|-----------------|-----------------|
A|-2-------4---/---|-------------4-\-|-2---------------|-2---------------|
E|-----------------|-----------------|-----------------|-----------------|

G|-----------------|-----------------|
D|-----------------|-----------------|
A|-2-------.---4---|(4)--------------|
E|-----------------|-----------------|


CHORUS 2 (2:01)
G|-----------------|-----------------|-----------------|-----------------|
D|-----------------|-----------------|-----------------|-----------------|
A|-6---------------|(6)--------------|-2-----------/---|-4---------------|
E|-----------------|-----------------|-----------------|-----------------|

G|-----------------|-----------------|-----------------|-----------------|
D|-----------------|-----------------|-----------------|-----------------|
A|-6---------------|(6)------6---\---|-2---------------|-4---------------|
E|-----------------|-----------------|-----------------|-----------------|

G|-----------------|-----------------|
D|-----------------|-----------------|
A|-----------------|-----------------|
E|-----------------|-----------------|


OUTRO (2:20)
G|-----------------|-----------------|-----------------|-----------------|
D|-4---------------|-----------------|-----------------|-----------------|
A|-----------------|-2-------2---/---|-4-----------4\2-|-2-------2---.---|
E|-----------------|-----------------|-----------------|-----------------|

G|-----------------|-----------------|-----------------|-----------------|
D|-4---------------|-----------------|-----------------|-------------4---|
A|-----------------|-2-----------2-/-|-4-----------4\2-|-2-------2/4-----|
E|-----------------|-----------------|-----------------|-----------------|

2:35
G|-----------------|-----------------|-----------------|-----------------|
D|-4---------------|-----------------|-----------------|-----------------|
A|-----------------|-2-----------2-.-|-4-------4-------|-2-------2---.---|
E|-----------------|-----------------|-----------------|-----------------|

G|-----------------|-----------------|-----------------|-----------------|
D|-----------------|-----------------|-----------------|-----------------|
A|-6---------------|(6)------6-------|-2-----------/---|-4---------------|
E|-----------------|-----------------|-----------------|-----------------|


Buenos Aires. May, 2015.

soldync@yahoo.com.ar

Almost there ...

Sign in to get your own page with links to favourite songs and more. You are just one click away...

Login with Facebook Login with Google