Log in

One click and you are in

Login with Facebook Login with Google

Why sign up and log in

Guitar Tabs Explorer
Ryan Adams tabs for Hey there mrs lovely

Guitar tabs

by: don gundermann

Capo 3rd  Fret

This was pulled from a live version, not sure where I got it, but a good song. These are just the chords. There's a few little hammer-ons and pull offs but if you listed you can figure them out. This is my work and may be wrong in parts.

Intro:

    A chord diagramG+G  A chord diagramD MajorD   A chord diagramA minorAm  A chord diagramC majorC
e:-------------------------------|
B:--3--3----1--1-----------------|
G:-----2----2--------------------|
D:----------2--2-----------------|
A:-------------3-----------------|
E:--3----------------------------|

A chord diagramG+G                     A chord diagramD MajorD                A chord diagramA minorAm  A chord diagramC majorC
Well ................ feel ........... boy
A chord diagramG+G                     A chord diagramD MajorD                A chord diagramA minorAm        A chord diagramC majorC
Put................... for ............around with
A chord diagramG+G                          A chord diagramD MajorD          A chord diagramA minorAm       A chord diagramC majorC
I'm .......................armies you destroyed
A chord diagramG+G                     A chord diagramD MajorD
I'm ..................underneath your bed.
     A chord diagramA minorAm                 A chord diagramC majorC
You ain't...............yet


e:-------------------------------|
B:-3--3---3----------------------|
G:--------2----------------------|
D:-------------------------------|
A:-2--3--------------------------|
E:-------------------------------|



Verse:

e:-------------------------------|
B:--3--3--3--3-------------------|
G:-------------------------------|
D:--5--4--3--2-------------------|
A:-------------------------------|
E:-------------------------------|

Hey there, Mrs. Lovely................


e:-------------------------------|
B:--3--3--3--3-------------------|
G:-------------------------------|
D:-------------------------------|
A:-----------2-------------------|
E:--3--2--1----------------------|


e:-------------------------------|
B:--3--3--5--3--3----------------|
G:--2--4--5--4--2----------------|
D:-------------------------------|
A:-------------------------------|
E:-------------------------------|


REPEAT CHORDS

Almost there ...

Sign in to get your own page with links to favourite songs and more. You are just one click away...

Login with Facebook Login with Google