Log in

One click and you are in

Login with Facebook Login with Google

Why sign up and log in

Guitar Tabs Explorer
Bryan Adams bass tabs for I do it for you

Bass tabs

Bryan Adams - "(Everything I Do)I Do It For You" - Bass Tab

Common Time(4/4)
Drop Eb Tuning(Eb,A,D,G)
Verse 2:
								  |-3-|
G |----------|-----------|-----------|-----------|-------------6-|
D |----------|-----------|-----------|-----------|-----------6---|
A |-r-r-r-11/|-4---4-4---|-4---4-4---|-----------|---------6-----|
Eb|----------|-----------|-----------|-3---3-3---|-5---5-5-------|
  1 2 3 4  1 2 & 3 4  1 2 & 3 4  1 2 & 3 4  1 2 & 3 4 & a

|-----------|-----------|------------|-----------|
|-----------|-----------|------------|-----------|
|-4---4-4---|-4---4-4---|------------|-----------|
|-----------|-----------|-3---3-3-3/-|-5---5-5-5-|
 1 2 & 3 4  1 2 & 3 4  1 2 & 3 4  1 2 & 3 4


Chorus 2:
 |-3-|           |-3-|
|-------------|-----------|-------------|-------------|------------|
|-----1-------|-1---1-1---|-----1-------|-1---1-1-1/4-|------------|
|---1-------1-|-----------|---1-------1-|-------------|-4---4-4-4/-|
|-0-----------|-----------|-0-----------|-------------|------------|
 1 & a 2 3 4  1 2 & 3 4  1 & a 2 3 4  1 2 & 3 4 &  1 2 & 3 4

|-------------|--------------|-----------------|
|-------------|--------------|-----------------|
|-11----------|--------------|-----------------|
|------5-5-5/-|-10---10-10---|-10---10-10-10-9-|
 1 2 & 3 4   1 2 & 3 4  1 2 & 3 4 &

"There's No Love..." Bit:

|-------------|-------------|-------------|-----------|-------------|
|-------------|-------------|-------------|-----------|-------------|
|-2---2-2-2/7-|-----------0-|-2---2-2-2/4-|-----------|-4---4-4-2---|
|-------------|-1---1-1-4---|-------------|-3---3-3---|-----------3-|
 1 2 & 3 4 &  1 2 & 3 4 &  1 2 & 3 4 &  1 2 & 3 4  1 2 & 3 4 &

|---------------------|-----------|------------|
|-------6---6-5-------|-----------|-6---6/11---|
|---------5-----3-4-5-|-6---6-6---|------------|
|-5---5---------------|-----------|------------|
 1 2 & 3 e & a 4 e &  1 2 & 3 4  1 2 & 3 4

Solo:

					   (x2)
|---------|------------|-------------|-------------|--------------|
|---------|*-----------|-------------|-------------|-------------*|
|-r-r-r-r-|*-----------|-----------2-|-4---4-4-0-2-|-4---4-4-2---*|
|---------|--3---3-3---|-3---3-3-5---|-------------|-----------5--|
 1 2 3 4  1 2 & 3 4  1 2 & 3 4 &  1 2 & 3 4 &  1 2 & 3 4 &

Last Chorus:

|-----------------|-----------|-----------------|-------------|
|-1---1-1---------|-----------|-1-------1-------|-------------|
|-----------1-0-1-|-----------|-----0-1-----0-1-|-------------|
|---------0-------|-3---3-3---|-----------------|-3---3-3-3-3-|
 1 2 & 3 4 e & a  1 2 & 3 4  1 2 & a 3 4 & a  1 2 & 3 & 4

|-----------|-----------|-----------|---------|
|-----------|-----------|-----------|---------|
|-4---4-4---|-----------|-----------|---------|
|-----------|-5---5-5---|-3---3-3---|-3-------|
 1 2 & 3 4  1 2 & 3 4  1 2 & 3 4  1 2 3 4

Song Structure:

Intro: rest

Verse 1: rest

Chorus 1: rest

Verse 2

Chorus 2
"No Love" bit

Solo
Last Chorus

Instrumental(same as solo except repeated many more times)

By: Johari Taylor
E-mail: viking@powerup.com.au

Almost there ...

Sign in to get your own page with links to favourite songs and more. You are just one click away...

Login with Facebook Login with Google