Log in

One click and you are in

Login with Facebook Login with Google

Why sign up and log in

Guitar Tabs Explorer
Will Ackerman tabs for Processional

Guitar tabs

Processional

by William Ackerman

From the 'Passage' album

Standard tuning. Capo 5th fret.

Key: \ = slide down    / = slide up
     h = hammer-on     p = pull-off

This is how I play it. Any improvements are more
than welcome. Thanks.

1

A chord diagramE MajorE|---0---------------------------3-------------0---|
A chord diagramBB|---0-------------3-------------0-------------0---|
A chord diagramG+G|---0-------------0-------------0-------------2---|
A chord diagramD MajorD|---2-------------2-------------2-------------2---|
A chord diagramA augmentedA|---2-------------3-------------2-------------0---|
A chord diagramE MajorE|---0----0---0---------0---0----0----0---0--------|

2
|---------------0-------0--------------------------|
|-----------0----------------------0------------0--|
|--------0---------------------0------------0------|
|-----2-------------2-------2------------2---------|
|--------------------------------------------------|
|--0------------0-------0-------------0------------|

repeat bar 1 then:

3
|----------------0-------0-------------------0-----|
|------------0---------------------0------------3--|
|---------0---------------------0------------------|
|------2-------------2-------2------------2--------|
|--------------------------------------------------|
|---0------------0-------0-------------0-----------|

4

|--------------------------------------------------|
|----0---------0---1-----------------3--------3----|
|*----------4--------------0h2-------------0-------|
|*-------2-------------2---------2------2----------|
|----0-------------0-------0---------0-------------|
|--------------------------------------------------|

5

|---------0-------|--------------------------------|
|--1---------3----|--0---------0---1---------------|
|----------------*|---------4--------------2h4p2p0-|
|------2---------*|------2-------------2-----------|
|--0--------------|--0-------------0-------0-------|
|-----------------|--------------------------------|

6

|--------------------------------------------------|
|------------0--1----------1-------------0--1------|
|--0------0--------4---0-------2------2--------4---|
|------2---------------------------2---------------|
|--3-------------------3-------0-------------------|
|--------------------------------------------------|

7

|---------------------0-------------0--------------|
|-----------------0-------------0-------------0----|
|--2-----------2-------------2-------------2-------|
|-----2-----2-------------2-------------2----------|
|--------0------------0-------------0--------------|
|--------------------------------------------------|

repeat all again from beginning, then:

8                   9

|---0-------------|------------------0-------------|
|-------------0---|----8--\--3-/-5-------------0---|
|----------0------|*------------------------0------|
|-------2---------|*---5--\--------------2---------|
|---0-------------|----------2-/-3---3-------------|
|-----------------|--------------------------------|

10

|---0-------------0--------------|-----------------|
|-------------0-------------0----|---7----------3--|
|----------0-------------0------*|----------0------|
|-------2-------------2---------*|---0-------------|
|---3-------------3--------------|-------7------2--|
|--------------------------------|-----------------|

11

|---------------------------------------------0----|
|---1---------0---1---------0---1---------0--------|
|----------0-------------0-------------0-----------|
|-------2-------------2-------------2--------------|
|---0-------------0-------------0-------------3----|
|--------------------------------------------------|

12

|--------------------------------------------------|
|--------3---0---------0--1------------------------|
|-----0-------------0--------4--0---------------0--|
|--2-------------2-----------------2---------2-----|
|------------2----------------------------2--------|
|--------------------------------------0-----------|

13

|---0-------------|
|-------------0---|   repeat from bar 9 to end of
|-----------------|   bar 12, then repeat all again
|----------2------|   the same though slowing down
|-------2---------|   from bar 11.
|---0-------------|   Finish with A chord diagramE minorEm chord.


james_calton@yahoo.com     Sheffield, England, 2003

________________________________________________________________________________

Almost there ...

Sign in to get your own page with links to favourite songs and more. You are just one click away...

Login with Facebook Login with Google