Log in

One click and you are in

Login with Facebook Login with Google

Why sign up and log in

Guitar Tabs Explorer
Acid Bath tabs for The blue

Guitar tabs with lyrics

Acid Bath - 'The Blue'
Words and Music by: Dax Riggs, Mike Sanchez, Sammy Duet, Audie Pitre, and
Jimmy Kyle
As heard on Acid Bath's Rotten recording 'When the Kite String Pops'

bass intro:
F----------------------------|
C----------------------------| . X4
G---------5------------------| .
C-0----5-----6---0--3--5--3--|

'Across your...
D--------------------------------|
A--------------------------------|
F--------------------------------|  . x4
C--------------------------------|  .
G--0--------5-----------3--5--3--|
C--0-----5-----6-----0--3--5--3--|
 Face,

Youre know you are,
D-------------------------------------------|
A-------------------------------------------|
F-------------------------------------------|  . x4
C-----------------------------------^----^--|  .
G--0---------------3------3--5--3---5----5--|
C--0--0--0---5--7-----7---------------------|
 Nothing,

 The sun burns...
D--------------------------------|
A--------------------------------|
F--------------------------------|  . x4
C--------------------------------|  .
G--0--------5-----------3--5--3--|
C--0-----5-----6-----0--3--5--3--|
 On,

D-------------------------------------------|
A-------------------------------------------|
F-------------------------------------------|  . x4
C-----------------------------------^----^--|  .
G--0---------------3------3--5--3---5----5--|
C--0--0--0---5--7-----7---------------------|
 Forever,

bass riff:
F-------------------------------------|
C-------------------------------------|
G--5--3--0--3----0-----------3--------|
C-------------------3--0--3-----3--0--|

'Go!'
D--------x3---------|--------------------------|
A-------------------|--------------------------|
F-------------------|--------------------------|  .  x2
C-------------------|--------------------------|  .
G--0----------5-----|-0---------5-----5-----5--|
C--0--0--5h7-----7\-|-0--0--5h7---5h7---5h7----|

D-------------------------------|
A-------------------------------|
F-------------------------------|  . X4
C-------------------------------|  .
G--0--------8----0--------------|
C--0--0--0-------0--0--0--0--1--|

D----------------------------------------------------------------|
A----------------------------------------------------------------|
F----------------------------------------------------------------|
C-----------------------1-1-1-1-------------------------1-1-1-1--|
G---------8-------------1-1-1-1------------8------------1-1-1-1--|
C-----------------------1-1-1-1-------------------------1-1-1-1--|
 I could not..

D----------------------------------------------------------------|
A----------------------------------------------------------------|
F----------------------------------------------------------------|
C--------------1-1-1-1-------------------------------------------|
G-------8------1-1-1-1-----------------8---8--8------------------|
C--------------1-1-1-1-------------------------------------------|
 acid party...

D-------------------------------|
A-------------------------------|
F-------------------------------|  . x4
C-------------------------------|  .
G--0--------8----0--------------|
C--0--0--0-------0--0--0--1--1--|
 Mutate     me

D---------|------------------------------------------------------|
A---------|------------------------------------------------------|
F---------|------------------------------------------------------| .x4
C-1-1-1-1-|------------------------------------------------------| .
G-1-1-1-1-|-0--------7--12--0------------------------------------|
C-1-1-1-1-|-0--0--0--7--12--0--0--0--0---1-----------------------|
 Eat my dead cock...

D-----------------------------------------------|-1st-----|-2nd-------
A-----------------------------------------------|-ending--|-ending----
F-----------------------------------------------|---------|-----------
C----------------------1-1-1-1------------------|-1-1-1-1-|--------111
G-------7--12----------1-1-1-1-----------7--12--|-1-1-1-1-|-7-12-7-111
C-------7--12----------1-1-1-1-----------7--12--|-1-1-1-1-|-7-12-7-111
 I have fallen

D------------------------------|
A------------------------------|
F------------------------------| . X4
C------------------------------| .
G--0--------7--12--0-----------|
C--0--0--0--7--12--0--0--0--1--|
 Leaves will fall

D-----------------------|
A-----------------------|
F-----------------------| . X2
C-----------------------| .
G--5\4--4\5--4\5--8--8--|
C--5\4--4\5--4\5--8--8--|

D-------------------------------------|
A-------------------------------------|
F-----------------6----------------6--| . x4
C-----------------6----------------6--| .
G-------5--4--5---4------5--4--5---4--|
C-------5--4--5----------5--4--5------|
 everybody whispers

D--------------------|
A--------------------|
F--------------------| . x2
C--------------------| .
G--4/1--1--4/1--8-8--|
C--4/1--1--4/1--8-8--|

D-------------------------------------|
A-------------------------------------|
F-----------------6----------------6--| . x4
C-----------------6----------------6--| .
G-------5--4--5---4------5--4--5---4--|
C-------5--4--5----------5--4--5------|
 wiping flecks of foam

D--------------------|
A--------------------|
F--------------------| . x4
C--------------------| .
G--4\1--1--4\1--8-8--|
C--4\1--1--4\1--8-8--|


Solo: w/wah        (rythm backing solo is intro riff)
D---------------------------------------------------------------------
A---------------------------------------------------------------------
F--------------------------^---^--------------------------------------
C-----7--5--7--10--7-10-7--12--12--------12-^-------------------------
G-5h7---------------------------------12----10----12-10---------------
C-------------------------------------------------------10--10h12-1212

D---------------------------------------------------------------------
A---------------------------------------------------------------------
F---------------------------------------------------------------------
C---------------------------------------------------------------------
G-8-8--------------------8-8--------------------8-8-10-10-12-12-10-10-
C-----12-12--10-10-12-12-----12-12--10-10-12-12-----------------------

D----------------------------------------------------14----18---------
A--------------------------------------15------17----16^---17^--------
F--------------^-----------^-----------18^-----18^--------------------
C--------------12----------12-----------------------------------------
G-12-12-10-10---------------------------------------------------------
C---------------------------------------------------------------------

D---------------------------------------------------------------------
A-----------------------15------15------------------------------------
F-14----14-17-16-13---------13------13----^---^---^----^---^---^---^--
C-----------------------------------------5---5---5----5---5---5---5--
G---------------------------------------------------------------------
C---------------------------------------------------------------------

D---------------------------------------------------------------------
A--------------------------------------------^------------------------
F------------------------------10h12-12--10--12------------------10h12
C------------------------10h12-----------------------------10h12------
G-5--3--5----------10h12-----------------------------10h12------------
C---------------------------------------------------------------------

D---------------------------------------------------------------------
A---------------------------------------------------------------------
F-12--10--12-------10-------------------------------------------------
C------------10-12----12-10----------13~-----12~-----13~-----12~------
G---------------------------------------------------------------------
C---------------------------------------------------------------------

'How can I...
D-------------------------------------------|
A-------------------------------------------|
F-------------------------------------------|  . x4
C-------------------------------------------|  .
G--0---------------3------3--5--3---5----5--|
C--0--0--0---5--7-----7---------------------|
 ever,

D--------------------------------|
A--------------------------------|
F--------------------------------|  . x4
C--------------------------------|  .
G--0--------5-----------3--5--3--|
C--0-----5-----6-----0--3--5--3--|
 I        have fallen

THE END...


Tuning for this song is Drop C.

That's about it, I put every riff in the correct order for your convenience.
If you have any questions, my name is Michael Hagler
and you can email me at Neo10169@cs.com.

Almost there ...

Sign in to get your own page with links to favourite songs and more. You are just one click away...

Login with Facebook Login with Google