Guitar Tabs Explorer
The Aces bass tabs for Waiting for you

Waiting For You bass tab


Be the first to rate

Waiting For You bass tab by The Aces

Bass tabs

Print

Tuning: Standard (E A D G)

Key: A

Difficulty: Novice

Album: When My Heart Felt Volcanic
Track: 13
Part of the song: whole song
Time Signature: 4/4 time
Key: A

Bass guitar enters on 2nd measure:

Intro:
  1  &  2  &  3  &  4  &   1  &  2  &  3  &  4  &   1  &  2  &  3  &  4  &   1  &  2  &  3  &  4   &
G|-------7p6--------------|-------7p6--------9-----|-------9p7--------------|-------9p7--------11-----|
D|--------------(7)-------|------------------------|--------------(9)-------|-------------------------|
A|------------------------|------------------------|------------------------|-------------------------|
E|5--------------------5--|5-----------------------|7--------------------7--|7------------------------|

Verse 1:
  1  &  2  &  3  &  4  &   1  &  2  &  3  &  4  &   1  &  2  &  3  &  4  &   1  &  2  &  3  &  4   &
G|-------7p6--------------|-------7p6--------9-----|-------9p7--------------|-------9p7--------11-----|
D|--------------(7)-------|------------------------|--------------(9)-------|-------------------------|
A|------------------------|------------------------|------------------------|-------------------------| x2
E|5--------------------5--|5-----------------------|7--------------------7--|7------------------------|

Verse 2:
  1  &  2  &  3  &  4  &   1  &  2  &  3  &  4  &   1  &  2  &  3  &  4  &   1  &  2  &  3  &  4   &
G|-------7p6--------------|-------7p6--------9-----|-------9p7--------------|-------9p7--------11-----|
D|--------------(7)-------|------------------------|--------------(9)-------|-------------------------|
A|------------------------|------------------------|------------------------|-------------------------| x2
E|5--------------------5--|5-----------------------|7--------------------7--|7------------------------|

Chorus:
  1  &  2  &  3  &  4  &   1  &  2  &  3  &  4  &   1  &  2  &  3  &  4  &   1  &  2  &  3  &  4   &
G|-------7p6--------------|-------7p6--------9-----|-------9p7--------------|-------9p7--------11-----|
D|--------------(7)-------|------------------------|--------------(9)-------|-------------------------|
A|------------------------|------------------------|------------------------|-------------------------| x3
E|5--------------------5--|5-----------------------|7--------------------7--|7------------------------|

Verse 3:
  1  &  2  &  3  &  4  &   1  &  2  &  3  &  4  &   1  &  2  &  3  &  4  &   1  &  2  &  3  &  4   &
G|-------7p6--------------|-------7p6--------9-----|-------9p7--------------|-------9p7--------11-----|
D|--------------(7)-------|------------------------|--------------(9)-------|-------------------------|
A|------------------------|------------------------|------------------------|-------------------------| x2
E|5--------------------5--|5-----------------------|7--------------------7--|7------------------------|

Verse 4:
  1  &  2  &  3  &  4  &   1  &  2  &  3  &  4  &   1  &  2  &  3  &  4  &   1  &  2  &  3  &  4   &
G|-------7p6--------------|-------7p6--------9-----|-------9p7--------------|-------9p7--------11-----|
D|--------------(7)-------|------------------------|--------------(9)-------|-------------------------|
A|------------------------|------------------------|------------------------|-------------------------| x2
E|5--------------------5--|5-----------------------|7--------------------7--|7------------------------|

Chorus:
  1  &  2  &  3  &  4  &   1  &  2  &  3  &  4  &   1  &  2  &  3  &  4  &   1  &  2  &  3  &  4   &
G|-------7p6--------------|-------7p6--------9-----|-------9p7--------------|-------9p7--------11-----|
D|--------------(7)-------|------------------------|--------------(9)-------|-------------------------|
A|------------------------|------------------------|------------------------|-------------------------| x4
E|5--------------------5--|5-----------------------|7--------------------7--|7------------------------|

Bridge:
  1  &  2  &  3  &  4  &   1  &  2  &  3  &  4  &   1  &  2  &  3  &  4  &   1  &  2  &  3  &  4  &
G|------------------------|------------------------|------------------------|------------------------|
D|------------------------|------------------------|------------------------|------------------------|
A|5-----------------------|0-----------------------|2-----0-----------------|2-----------------------|
E|------------------------|------------0-----------|------------------------|------0-----------------|

Chorus:
  1  &  2  &  3  &  4  &   1  &  2  &  3  &  4  &   1  &  2  &  3  &  4  &   1  &  2  &  3  &  4   &
G|-------7p6--------------|-------7p6--------9-----|-------9p7--------------|-------9p7--------11-----|
D|--------------(7)-------|------------------------|--------------(9)-------|-------------------------|
A|------------------------|------------------------|------------------------|-------------------------| x4
E|5--------------------5--|5-----------------------|7--------------------7--|7------------------------|


NOTES:
------
1) The ghost notes are most likely the piano ringing out, but it could be the bass guitar playing the octave.
     Either way, the bass line feels a bit empty without them, IMO, so I added them in. :)

*****************************************

| p  Pull-off
| () Ghost note

*****************************************