Log in

One click and you are in

Login with Facebook Login with Google

Why sign up and log in

Guitar Tabs Explorer
Accept tabs for Heaven is hell

Guitar tabs

Intro
-----------------------------|
-----------------------------|
-----------------------------|
9---7---5---5---4---2--------|
9---7---5---5---4---2    x 4-|
7---5---3---3---2---0--------|


Verse 1
---------------------------------------------------------------------|
----------------------8-10------------8-10--------------8-10---------|
--------------7-9-----7-9-----7-9-----7-9------7-9------7-9------7-9-|
5-4-2-7-------7-9-----5-7-----7-9-----5-7------7-9------5-7------7-9-|
5-4-2-7-------5-7-------------5-7--------------5-7---------------5-9-|
3-2-0-5--------------------------------------------------------------|


Pre-Chorus 1
-------------------------------------------------------------|
----8--------------------------------------8-----------------|
4---7---4---7---4-----------------4----4---7---4---7---4-----|
4---5---4---7---2---2--2-0-2-4-0--2----2---5---4---5---4---2-|
2-------2---5---2---2-------------2----2-------2---5---2---2-|
--------------------0--------------------------------------0-|


Chorus 1
-----------------------------------------------------------|
-----------------------------------------------------------|
----------7------------------------------7-----------------|
9-9-9-7-7-7-5---5-5-5-4-4-2----9-9-9-7-7-7-5---5-5-5-4-4-2-|
9-9-9-7-7-5-5---5-5-5-4-4-2----9-9-9-7-7-5-5---5-5-5-4-4-2-|
7-7-7-5-5---3---3-3-3-2-2-0----7-7-7-5-5---3---3-3-3-2-2-0-|


Verse 2 (Same as Verse 1)


Pre-Chorus 2
-----------------------------------------------------------|
-----------------------------------------------------------|
----7-------2-------4-4------------------7-------2---------|
4---7---4---2---4---4-4---------4----4---7---4---2---4---2-|
4---5---4---0---4---2-2-0-2-4-0-2----2---5---4---0---4---2-|
2-------2-------2---------------2----2-------2-------2---0-|


Chorus 2
-----------------------------------------------------------|
-----------------------------------------------------------|
----------7------------------------------7---------------5-|
9-9-9-7-7-7-5---5-5-5-4-4-2----9-9-9-7-7-7-5---5-5-5-4-4-3-|
9-9-9-7-7-5-5---5-5-5-4-4-2----9-9-9-7-7-5-5---5-5-5-4-4-3-|
7-7-7-5-5---3---3-3-3-2-2-0----7-7-7-5-5---3---3-3-3-2-2---|


Bridge
------------------|
------------------|
7-7-7-9---4-5-5-7-|
7-7-7-9---4-5-5-7-|
5-5-5-7---2-3-3-5-|
------------------|


Solo


Solo Rhythm
---------------------                               ----------------------|
---------------------                               ----------------------|
9---7---5---5---4---2                               9---7---5---5---4-----|
9---7---5---5---4---2  x 3   On 4th time play this  9---7---5---5---4---2-|
7---5---3---3---2---0                               7---5---3---3---2---2-|
--------------------=                               --------------------0-|

End of solo
----------------------------------------------------------------------|
----------------------------------------------------------------------|
11-11-11b-11---9-10h-9------------------------------------------------|
--------------------------------9-10h-9-------------------------------|
--------------------------------------------7-8h-7--------------------|
------------------------------------------------------7-8h-7----0-----|

Spoken Verse
-------------                 -------------------------|
-------------                 -------------------------|
-------------                 -------------------------|
5---5---4---2                 5---5---4---2---9--------|
5---5---4---2  x 2   Then     5---5---4---2---9    x 5-|
ⓘ Guitar tab for 'Heaven Is Hell' by Accept, a heavy metal band formed in 1976 from Solingen, Germany

Almost there ...

Sign in to get your own page with links to favourite songs and more. You are just one click away...

Login with Facebook Login with Google