Log in

One click and you are in

Login with Facebook Login with Google

Why sign up and log in

Guitar Tabs Explorer
Accept bass tabs for Balls to the wall

Bass tabs

BALLS TO THE WALL

MAIN RIFF
E-------------------------------------------------
A-------------------------------------------------
D-----5--0--6--5--0--5----------------------------
G-------------------------------------------------

          BALLS TO THE WALL MAN
E---5-5-5-5-5-5-5-5--------------------3-5-5-5-5--
A-------------------5--0--6--5--0--5--------------
D-------------------------------------------------
G-------------------------------------------------

BALLS TO THE WALL

E-------------------------------------------------
A---5--0--6--5--0--5------------------------------
D-------------------------------------------------
G-------------------------------------------------

THE SOLO CAN BE ALTERED TO FIT YOUR STYLE I NEVER
PLAY THE ORIGINAL ONE ITS BORING


HAVE FUN LISTEN TO THE CD AND PICK OUT THE RIFF DONT
FORGET YOU CAN HIT DISTORTION AND PICK UP A EXTRA BITE

Other versions of Balls To The Wall

Balls to the wall (Ver. 2)Bass tabs

Almost there ...

Sign in to get your own page with links to favourite songs and more. You are just one click away...

Login with Facebook Login with Google