Log in

One click and you are in

Login with Facebook Login with Google

Why sign up and log in

Guitar Tabs Explorer
Accept bass tabs for Balls to the wall (Ver. 2)

Bass tabs with lyrics

Tuning: Standard (EADG)

🏷Legend:
r = rest
() = sustained note
/ = slide up
^ = 1/2 bend
a = acciaccatura (appears above bar)



INTRO:
       (Rest x8)
G |---------------------------------|
D |---------------------------------|
A |---------------------------------|
E |-r-------------------------------|
  1  &  2  &  3  &  4  &


PRE-VERSE:

G |---------------------------------|---------------------------------|
D |---------------------------------|---------------------------------|
A |---------------------------------|---------------------------------|
E |-0---0---0---0---0---0---0---0---|-0---0---0---0---0---0---0---0---|
  1  &  2  &  3  &  4  &   1  &  2  &  3  &  4  &

G |---------------------------------|---------------------------------|
D |---------------------------------|---------------------------------|
A |---------------------------------|---------------------------------|
E |-0---0---0---0---0---0---0---0---|-3---------------4-----5-----3---|
  1  &  2  &  3  &  4  &   1  &  2  &  3  &  4  &

G |---------------------------------|---------------------------------|
D |---------------------------------|---------------------------------|
A |---------------------------------|---------------------------------|
E |-0---0---0---0---0---0---0---0---|-0---0---0---0---0---0---0---0---|
  1  &  2  &  3  &  4  &   1  &  2  &  3  &  4  &

G |---------------------------------|---------------------------------|---------------------------------|
D |---------------------------------|---------------------------------|---------------------------------|
A |---------------------------------|---------------------------------|---------------------------------|
E |-0---0---0---0---0---0---0---0---|-3-------------------------------|(3)------------------3---r---0---|
  1  &  2  &  3  &  4  &   1  &  2  &  3  &  4  &   1  &  2  &  3  &  4  &



VERSE 1:
         (x7)
G |---------------------------------||---------------------------------|
D |---------------------------------||---------------------------------|
A |---------------------------------||-----------------------------5---|
E |-0---0---0---0---0---0---0---0---||-0---0---0---0---0---5---7-------|
  1  &  2  &  3  &  4  &   1  &  2  &  3  &  4  &


VERSE 2:
         (x7)
G |---------------------------------||---------------------------------|
D |---------------------------------||---------------------------------|
A |---------------------------------||-----------------------------0---|
E |-0---0---0---0---0---0---0---0---||-0---0---0---0---0---0---0-------|
  1  &  2  &  3  &  4  &   1  &  2  &  3  &  4  &


PRE-CHORUS:

G |---------------------------------|---------------------------------|
D |---------------------------------|---------------------------------|
A |-2---2---2---2---2---2---2---2---|-2---2---2---2---2---2---2---2---|
E |---------------------------------|---------------------------------|
  1  &  2  &  3  &  4  &   1  &  2  &  3  &  4  &

G |---------------------------------|---------------------------------|
D |---------------------------------|---------------------------------|
A |-2---2---2---2---2---2---2---2---|-2---2---2---2---2---2---2---0---|
E |---------------------------------|---------------------------------|
  1  &  2  &  3  &  4  &   1  &  2  &  3  &  4  &

G |---------------------------------|---------------------------------|
D |---------------------------------|---------------------------------|
A |-2---2---2---2---2---2---2---2---|-2---2---2---2---2---2---2---2---|
E |---------------------------------|---------------------------------|
  1  &  2  &  3  &  4  &   1  &  2  &  3  &  4  &

G |---------------------------------|---------------------------------|
D |---------------------------------|---------------------------------|
A |-2---2---2---2---2---2---2---0---|-0---0---0---0---0---r-----------|
E |---------------------------------|---------------------------------|
  1  &  2  &  3  &  4  &   1  &  2  &  3  &  4  &


CHORUS 1:

G |---------------------------------|---------------------------------|
D |---------------------------------|---------------------------------|
A |---------2-----------------------|---------2-----------------------|
E |-0-----------0---3-------2---0---|-0---0-------0---3-------2-------|
  1  &  2  &  3  &  4  &   1  &  2  &  3  &  4  &

G |---------------------------------|---------------------------------|
D |---------------------------------|---------------------------------|
A |---------2-----------------------|---------2-----------------------|
E |-0-----------0---3-------2---0---|-0---0-------0---3---3---3---2---|
  1  &  2  &  3  &  4  &   1  &  2  &  3  &  4  &

                   6/4
G |---------------------------------|-------------------------------------------------|
D |---------------------------------|-------------------------------------------------|
A |---------2-----------------------|---------2-------------------------------2-------|
E |-0-----------0---3-------2---0---|-0---0-------0---3-------2-------0-----------0---|
  1  &  2  &  3  &  4  &   1  &  2  &  3  &  4  &  5  &  6  &

  4/4                a
G |---------------------------------|---------------------------------|
D |---------------------------------|---------------------------------|
A |---------------------------------|3/5--5---5---5---5---0-----------|
E |-3---3---3---3---3---3---3---0---|-------------------------3---2---|
  1  &  2  &  3  &  4  &   1  &  2  &  3  &  4  &


PRE-VERSE:

G |---------------------------------|---------------------------------|
D |---------------------------------|---------------------------------|
A |---------------------------------|---------------------------------|
E |-0---0---0---0---0---0---0---0---|-0---0---0---0---0---0---0---0---|
  1  &  2  &  3  &  4  &   1  &  2  &  3  &  4  &

G |---------------------------------|---------------------------------|
D |---------------------------------|---------------------------------|
A |---------------------------------|---------------------------------|
E |-0---0---0---0---0---0---0---0---|-0---0---0---0---0---3---r---0---|
  1  &  2  &  3  &  4  &   1  &  2  &  3  &  4  &


VERSE 3:
         (x7)
G |---------------------------------||---------------------------------|
D |---------------------------------||---------------------------------|
A |---------------------------------||-----------------------------5---|
E |-0---0---0---0---0---0---0---0---||-0---0---0---0---0---5---7-------|
  1  &  2  &  3  &  4  &   1  &  2  &  3  &  4  &


VERSE 4:
         (x7)
G |---------------------------------||---------------------------------|
D |---------------------------------||---------------------------------|
A |---------------------------------||-------------------------7---0---|
E |-0---0---0---0---0---0---0---0---||-0---0---0---0---0---0-----------|
  1  &  2  &  3  &  4  &   1  &  2  &  3  &  4  &


PRE-CHORUS:

G |---------------------------------|---------------------------------|
D |---------------------------------|---------------------------------|
A |-2---2---2---2---2---2---2---2---|-2---2---2---2---2---2---2---2---|
E |---------------------------------|---------------------------------|
  1  &  2  &  3  &  4  &   1  &  2  &  3  &  4  &

G |---------------------------------|---------------------------------|
D |---------------------------------|---------------------------------|
A |-2---2---2---2---2---2---2---2---|-2---2---2---2---2---2---2---0---|
E |---------------------------------|---------------------------------|
  1  &  2  &  3  &  4  &   1  &  2  &  3  &  4  &

G |---------------------------------|---------------------------------|
D |---------------------------------|---------------------------------|
A |-2---2---2---2---2---2---2---2---|-2---2---2---2---2---2---2---2---|
E |---------------------------------|---------------------------------|
  1  &  2  &  3  &  4  &   1  &  2  &  3  &  4  &

G |---------------------------------|---------------------------------|
D |---------------------------------|---------------------------------|
A |-2---2---2---2---2---2---2---0---|-0---0---0---0---0---r-----------|
E |---------------------------------|---------------------------------|
  1  &  2  &  3  &  4  &   1  &  2  &  3  &  4  &


CHORUS 2:

G |---------------------------------|---------------------------------|
D |---------------------------------|---------------------------------|
A |---------2-----------------------|---------2-----------------------|
E |-0-----------0---3-------2---0---|-0---0-------0---3-------2-------|
  1  &  2  &  3  &  4  &   1  &  2  &  3  &  4  &

G |---------------------------------|---------------------------------|
D |---------------------------------|---------------------------------|
A |---------2-----------------------|---------2-----------------------|
E |-0-----------0---3-------2---0---|-0---0-------0---3---3---3---2---|
  1  &  2  &  3  &  4  &   1  &  2  &  3  &  4  &

                   6/4
G |---------------------------------|-------------------------------------------------|
D |---------------------------------|-------------------------------------------------|
A |---------2-----------------------|---------2-------------------------------2-------|
E |-0-----------0---3-------2---0---|-0---0-------0---3-------2-------0-----------0---|
  1  &  2  &  3  &  4  &   1  &  2  &  3  &  4  &  5  &  6  &

  4/4                a
G |---------------------------------|---------------------------------|
D |---------------------------------|---------------------------------|
A |---------------------------------|3/5--5---5---5---5---0-----------|
E |-3---3---3---3---3---3---3---0---|-------------------------3---2---|
  1  &  2  &  3  &  4  &   1  &  2  &  3  &  4  &


PRE-BRIDGE:

G |---------------------------------|---------------------------------|
D |---------------------------------|---------------------------------|
A |---------------------------------|---------------------------------|
E |-0---0---0---0---0---0---0---0---|-0---0---0---0---0---0---0---0---|
  1  &  2  &  3  &  4  &   1  &  2  &  3  &  4  &

G |---------------------------------|---------------------------------|
D |---------------------------------|---------------------------------|
A |---------------------------------|-------------------------7---0---|
E |-0---0---0---0---0---0---0---0---|-0---0---0---0---0---5-----------|
  1  &  2  &  3  &  4  &   1  &  2  &  3  &  4  &


BRIDGE:

G |---------------------------------|---------------------------------|
D |---------------------------------|---------------------------------|
A |-2---2---2---2---2---2---2-------|-----------------------------0---|
E |-----------------------------3---|-3---3---3---3---3---3---3-------|
  1  &  2  &  3  &  4  &   1  &  2  &  3  &  4  &

G |---------------------------------|---------------------------------|
D |---------------------------------|---------------------------------|
A |-2---2---2---2---2---2---2---0---|-0---0---0---0---0-----------0---|
E |---------------------------------|---------------------0---2-------|
  1  &  2  &  3  &  4  &   1  &  2  &  3  &  4  &

G |---------------------------------|---------------------------------|
D |---------------------------------|---------------------------------|
A |-2---2---2---2---2---2---2-------|-----------------------------0---|
E |-----------------------------3---|-3---3---3---3---3---3---3-------|
  1  &  2  &  3  &  4  &   1  &  2  &  3  &  4  &

G |---------------------------------|---------------------------------|
D |---------------------------------|---------------------------------|
A |-2---2---2---2---2---2---2-------|-0---0---0---0---0-r-------------|
E |---------------------------------|---------------------0---3^------|
  1  &  2  &  3  &  4  &   1  &  2  &  3  &  4  &


BREAKDOWN:
                 (x4)
G |---------------------------------|---------------------------------|
D |---------------------------------|---------------------------------|
A |---------2-----------------------|---------2-----------------------|
E |-0-----------0---3-------2---0---|-0---0-------0---3-------2-------|
  1  &  2  &  3  &  4  &   1  &  2  &  3  &  4  &


INTERLUDE (Chanting):
                 (x3)
G |---------------------------------|---------------------------------|
D |---------------------------------|---------------------------------|
A |---------2-----------------------|---------2-----------------------|
E |-0-----------0---3-------2---0---|-0-----------0---3---3---2---0---|
  1  &  2  &  3  &  4  &   1  &  2  &  3  &  4  &

G |---------------------------------|---------------------------------|
D |---------------------------------|---------------------------------|
A |---------2-----------------------|---------2---0---------------0---|
E |-0-----------0---3-------2---0---|-0---------------3---3---2-------|
  1  &  2  &  3  &  4  &   1  &  2  &  3  &  4  &


PRE-CHORUS:

G |---------------------------------|---------------------------------|
D |---------------------------------|---------------------------------|
A |-2---2---2---2---2---2---2---2---|-2---2---2---2---2---2---2---2---|
E |---------------------------------|---------------------------------|
  1  &  2  &  3  &  4  &   1  &  2  &  3  &  4  &

G |---------------------------------|---------------------------------|
D |---------------------------------|---------------------------------|
A |-2---2---2---2---2---2---2---0---|-0---0---0---0---0---0---0---0---|
E |---------------------------------|---------------------------------|
  1  &  2  &  3  &  4  &   1  &  2  &  3  &  4  &

G |---------------------------------|---------------------------------|
D |---------------------------------|---------------------------------|
A |-2---2---2---2---2---2---2---2---|-2---2---2---2---2---2---2---2---|
E |---------------------------------|---------------------------------|
  1  &  2  &  3  &  4  &   1  &  2  &  3  &  4  &

G |---------------------------------|---------------------------------|
D |---------------------------------|---------------------------------|
A |-2---2---2---2---2---2---2---0---|-0---0---0---0---0---r-----------|
E |---------------------------------|---------------------------------|
  1  &  2  &  3  &  4  &   1  &  2  &  3  &  4  &


OUT-CHORUS:

G |---------------------------------|---------------------------------|
D |---------------------------------|---------------------------------|
A |---------2-----------------------|---------2-----------------------|
E |-0-----------0---3-------2---0---|-0---0-------0---3-------2-------|
  1  &  2  &  3  &  4  &   1  &  2  &  3  &  4  &

G |---------------------------------|---------------------------------|
D |---------------------------------|---------------------------------|
A |---------2-----------------------|---------2-----------------------|
E |-0-----------0---3-------2---0---|-0---0-------0---3---3---3---2---|
  1  &  2  &  3  &  4  &   1  &  2  &  3  &  4  &

                   6/4
G |---------------------------------|-------------------------------------------------|
D |---------------------------------|-------------------------------------------------|
A |---------2-----------------------|---------2-------------------------------2-------|
E |-0-----------0---3-------2---0---|-0---0-------0---3-------2-------0-----------0---|
  1  &  2  &  3  &  4  &   1  &  2  &  3  &  4  &  5  &  6  &

  4/4                a
G |---------------------------------|---------------------------------|---------------------------------|
D |---------------------------------|---------------------------------|---------------------------------|
A |---------------------------------|3/5--5---5---5---5---0-----------|---------2-----------------------|
E |-3---3---3---3---3---3---3---0---|-------------------------3---2---|-0-----------0---3---r-----------|
  1  &  2  &  3  &  4  &   1  &  2  &  3  &  4  &   1  &  2  &  3  &  4  &
ⓘ This is the 2nd version of bass guitar tab for 'Balls To The Wall' by Accept, a heavy metal band formed in 1976 from Solingen, Germany

Other versions of Balls To The Wall

Balls to the wallBass tabs

Almost there ...

Sign in to get your own page with links to favourite songs and more. You are just one click away...

Login with Facebook Login with Google