Log in

One click and you are in

Login with Facebook Login with Google

Why sign up and log in

Guitar Tabs Explorer
Acacia Strain tabs for Dr doom

Guitar tabs with lyrics

Album: Continent
Label: Prosthetic
Tabbed by: c.o.c.-yeah


Tuning: A,E,A,D,F#,B low to high

🏷Legend
. -palm mute
ph -pinch harmonic
b -bend
fb -full bend
v- vibrato
/ -slide up
\- slide down
~- let ring

order of riffs at bottom of page


riff 1
|--------------------------------|
|--------------------------------|
|-----------------"            "-|
|-----------------pick scrape 2x-|
|-6-3-5-2-4-1-0~--"            "-|
|-6-3-5-2-4-1-0~-----------------|
          . .


riff 2
|---------------------------------|
|---------------------------------|
|---------------------------------|
|---------------------------------|
|-0-00-00-0-00-00-0-00-00-1-0-1-4-|
|-0-00-00-0-00-00-0-00-00-1-0-1-4-|
    .. ..   .. ..   .. ..   . .

riff 3
|-----------------------------------------|
|-----------------------------------------|
|-----------------------------------------|
|-----------------------------------------|
|-0-00-00-0-00-00-0-00-00-111-1-1-444-4-4-|
|-0-00-00-0-00-00-0-00-00-111-1-1-444-4-4-|
    .. ..   .. ..   .. .. ...     ...


riff 4
|---------------------------|
|---------------------------|
|---------------------------|
|---------------------------|
|---2------1------------6fb-|
|-0---3-2v---2-1v-0-1-0-----|


riff 5
|------------------------------------|
|------------------------------------|
|------------------------------------|
|------------------------------------|
|-0-000000-0-000000-0-000000-1-0-1-4-|
|-0-000000-0-000000-0-000000-1-0-1-4-|
    ......   ......   ......   . .


riff 6
|--------------------------------------------|
|--------------------------------------------|
|--------------------------------------------|
|--------------------------------------------|
|-0-000000-0-000000-0-000000-111-1-1-444-4-4-|
|-0-000000-0-000000-0-000000-111-1-1-444-4-4-|
    ......   ......   ...... ...     ...


riff 7
|---------------------------------------------------|
|---------------------------------------------------|
|-play parentheses only first time------------------|
|---------------------------------------------------|
|-(7\-1)1-1-11-1-0-1-0-7\-1-1-1---2---3---4---\7fbv-|
|-(7\-1)1-1-11-1-0-1-0-7\-1-1-1-1---1---1---1-------|
      . . . .. . . . .    . .


riff 8
|-------------------------------|
|-------------------------------|
|-------------------------------|
|-------------------------------|
|-1-1-11-1-0-1-0-7\-1-1-1-5~-1~-|
|-1-1-11-1-0-1-0-7\-1-1-1-7~-3~-|
  . . .. . . . .    . .


riff 9
|----------------------------------------------------------------------|
|----------------------------------------------------------------------|
|----------------------------------------------------------------------|
|-------------------------------------------------------5/6\5-7/8\7----|
|-0-00-0-00-0-00-0-00-0-00-0-00-0-000000-0~-0-00-0-00-0-3/4\3-5/6\5-6\-|
|-0-00-0-00-0-00-0-00-0-00-0-00-0-000000-0~-0-00-0-00-0-------------6\-|
  . .. . .. . .. . .. . .. . .. . ......    . .. . .. .


riff 10
|------------------------------------------------------------------------|
|------------------------------------------------------------------------|
|------------------------------------------------------------------------|
|-------------------------------------------------------5/6\5-7/8\7------|
|-0-00-0-00-0-00-0-00-0-00-0-00-0-000000-0~-0-00-0-00-0-3/4\3-5/6\5------|
|-0-00-0-00-0-00-0-00-0-00-0-00-0-000000-0~-0-00-0-00-0-------------6phv-|
  . .. . .. . .. . .. . .. . .. . ......    . .. . .. .

don't know last breakdown yet


riff order:


riff 1-1x

riff 2-1x

riff 3-1x

riff 2-1x

riff 4-1x

riff 5-1x

riff 6-1x

riff 5-1x

riff 4-1x

riff 7-3x

riff 8-1x

riff 2-1x

riff 3-1x

riff 2-1x

riff 4-1x

riff 5-1x

riff 6-1x

riff 5-1x

riff 4-1x

riff 5-1x\

riff 6-1x \ solo played over this section (don't know it)

riff 5-1x /

riff 4-1x/

riff 9-1x

riff 10-1x

riff 9-1x

riff 10-1x (leave out pinch harmonic at end of riff this time)
last breakdown
the end

Almost there ...

Sign in to get your own page with links to favourite songs and more. You are just one click away...

Login with Facebook Login with Google