Log in

One click and you are in

Login with Facebook Login with Google

Why sign up and log in

Guitar Tabs Explorer
AC/DC tabs for T.N.T.

Guitar tabs

Title: TNT
Album: High Voltage

This is a fairly easy song to transcribe the only part
not here is the solo. I have the easy part in the
background during the solo.

-|---||-----|-------|---------||-----|-----|-----||-----|-----|-----||------|-
-|---||-----|-------|---------||-----|-----|-----||-----|-----|-----||------|-
-|---||-----|-------|---------||-----|-----|-----||-----|-----|-----||------|-
-|-2-||-2---|-5--7--|---------||-2---|-5---|-7---||-7---|-5---|-2---||-555-7|-
-|-2-||-2---|-5--7--|---------||-2---|-5---|-7---||-7---|-5---|-2---||-555-7|-
-|-0-||-0---|-3--5--|-3-5-3-3-||-0---|-3---|-5---||-5---|-3---|-0---||-333-5|-
                             11x                                    4x

-|--||-----|--------|---------||-----|------||-----|-----|-----||------|------
-|--||-----|--------|---------||-----|------||-----|-----|-----||------|------
-|5^||-----|--------|---------||-----|------||-----|-----|-----||------|------
-|--||-2---|-5--7---|---------||-2---|-5--7-||-7---|-5---|-2---||-555-7|------
-|--||-2---|-5--7---|---------||-2---|-5--7-||-7---|-5---|-2---||-555-7|------
-|--||-0---|-3--5---|-3-5-3-3-||-0---|-3--5-||-5---|-3---|-0---||-333-5|------
                              9x                               4x

-|--||-----|--------|---------||----|-------||-----|-----|-----||------|------
-|--||-----|--------|---------||----|-------||-----|-----|-----||------|------
-|5^||-----|--------|---------||----|-------||-----|-----|-----||------|------
-|--||-2---|-5--7---|---------||-2--|-5--7--||-7---|-5---|-2---||-555-7|------
-|--||-2---|-5--7---|---------||-2--|-5--7--||-7---|-5---|-2---||-555-7|------
-|--||-0---|-3--5---|-3-5-3-3-||-0--|-3--5--||-5---|-3---|-0---||-333-5|------
                              3x                               8x

-|--------||----------|----------------------|--------------------------------
-|--------||----------|----------------------|--------------------------------
-|--------||----------|----------------------|--------------------------------
-|--3-4-5-||--6-7-8-9-|---10---11----12---13-|--------------------------------
-|-314253-||-64758697-|-10-8-11-9-12-10-1311-|--------------------------------
-|-1-2-3--||-4-5-6-7--|--8----9---10----11---|--------------------------------
                                               GO NUTZ!!!!!

Other versions of T.N.T.

T n tChords
TntChords
Tnt (Ver. 2)Chords
Tnt liveTabs
Tnt (Ver. 2)Tabs
Tnt (Ver. 3)Tabs
Tnt albumTabs
Tnt1Tabs

Almost there ...

Sign in to get your own page with links to favourite songs and more. You are just one click away...

Login with Facebook Login with Google