Log in

One click and you are in

Login with Facebook Login with Google

Why sign up and log in

Guitar Tabs Explorer
AC/DC chords for T.N.T.

Guitar chords

Title:T.N.T.
Album:T.N.T./High Voltage


Intro
E---------------
B---------------
G---------------
D-----2---------
A-----2---------
E-----0---------
let it ring������������������ pm=Palm mute
Verse
E-----------------------------------------------
B-----------------------------------------------
G----------------2---2-----2--------------------
D--2----------0--2---2--0--2--0--2--------------
A--2----------x--0---0--x--0--x--2--------------
E--0-pm-------3---------3-----3--0-pm-----------
[-play once-][-repeat through out the verse-]


Chorus
E---------------------
B---------------------
G--2------------------
D--2-------2----------
A--0-------2----------
E------3---0----------

End of Chorus
E-----------------------------------------
B---3-------------------------------------
G---0----2----------2-bend-and-hold-------
D---0----2--------------------------------
A---X----0--------------------------------
E---3-------------------------------------

End(Malcom)
E--0--1--2--3--4--5--6--7--8---------------------
B--0--1--2--3--4--5--6--7--8---------------------
G--1--2--3--4--5--6--7--8--9---------------------
D--2--3--4--5--6--7--8--9--10---------------------
A--2--3--4--5--6--7--8--9--10---------------------
E--0--1--2--3--4--5--6--7--8---------------------
Well you get the picture just keep moving down the fret board

End(Angus)
E----------------------------------------
B--5---6---7---8-------------------------
G-(7)-(8)-(9)-(10)-(11)-(12)-(13)-(14)---
D----------------------------------------���� ( )=bend
A----------------------------------------
E----------------------------------------
just move down the fret board

Other versions of T.N.T.

T n tChords
Tnt (Ver. 2)Chords
TntTabs
Tnt liveTabs
Tnt (Ver. 2)Tabs
Tnt (Ver. 3)Tabs
Tnt albumTabs
Tnt1Tabs

Almost there ...

Sign in to get your own page with links to favourite songs and more. You are just one click away...

Login with Facebook Login with Google