Log in

One click and you are in

Login with Facebook Login with Google

Why sign up and log in

Guitar Tabs Explorer
AC/DC bass tabs for Squealer

Bass tabs

Song Title: Squealer
Album: Dirty Deeds Done Dirt Cheap
----------------------------------------------
 
The song switches between these two bass lines.
Just listen for the chord change to tell when
to switch.
 

G:----------------------------
D:------------------------3---
A:-5-3-5--5---3-5--3-5--5-----
E:----------5-----------------
 

G:----------------------------
D:----------------------------
A:-2-0-2--2---0-2--0-2--2-0---
E:----------2-----------------
 
 
 

Submitted by:  Eric Shotton (ejshotton@earthlink.net)

Almost there ...

Sign in to get your own page with links to favourite songs and more. You are just one click away...

Login with Facebook Login with Google