Guitar Tabs Explorer
AC/DC tabs for Rock n  roll singer

Rock N Roll Singer tab by AC/DC

AC/DC tabs for Rock n  roll singer

Tabs with lyrics

Rhythm fig. 1  (Guitar 1)

-------------------------------------------------
------------------------9-9----------------------
-4-4--------4--2--4--2--9-9----------------------
-4-4--------4--2--4--2--9-9----------------------
-2-2--------2--0--2--0--7-7----------------------
------------------------0-0----------------------

Rhythm fig. 2 (guitar 1)

-------------------------------------------------
-------------------------------------------------
-4---4-4--4-----4---4-4--4-----------------------
-4---4-4--4-----4---4-4--4-----------------------
-2---0-2--2-----2---0-2--2-----------------------
-------------------------------------------------
Intro guitar solo (guitar 2)
           ~~~~~               ~~~~       ~~~
-------------------------------------------------
-------------------)----------------)------------
-7^(8)------------7----------------7-------------
--------9--9---------x--9-x--9---------9-9-------
----------------------------------------------9/-
-------------------------------------------------
                ~~~~      p.m~~~~
-------------------------------------------7-----
----------)----------------------10^(12)-----10--
---------7----------7----------------------------
-x-x--9-----9--9-------(9)--9--------------------
-x-x---------------------------------------------
-------------------------------------------------
               ~~~~~
----------------------------7----9^(10)-7----7---
-10^(12)^7^10---------7-10--(10)--------(10)-10^-
-------------------------------------------------
--------------9------9---------------------------
-------------------------------------------------
-------------------------------------------------

                          ~~~~              ~~~~
-----10-------10--10-10--7----9^(11)^7^9^7-7-----
-(12)--10^(12)----------------------------9------
-------------------------------------------------
-------------------------------------------------
-------------------------------------------------
-------------------------------------------------

              ~~~~      )(11)               ~~~~~
-9^(11)^7--9-7---------/-------------------------
----------------------/------10------------------
---------------------9---------9(11)-(11)9-7/----
-------------------------------------------------
-------------------------------------------------
-------------------------------------------------

----------<15>-----------------10^(12)--10^(12)-7
-15^(17)-------(17)-(16)-13/---------------------
-------------------------------------------------
-------------------------------------------------
-------------------------------------------------
-------------------------------------------------

                                         ~~~~~~~~
-10^(12)--10^(12)-7---10^(12)-10^(12)--14--------
-------------------------------------------------
-------------------------------------------------
-------------------------------------------------
-------------------------------------------------
-------------------------------------------------

Rhythm fig. 3 (guitars 1&2)

-------------------------------------------------
-------------------------------------------------
-4----4--4---4-----4----4--4---4-----4----4--4---
-4----4--4---4-----4----4--4---4-----4----4--4---
-2----0--2---2-----2----0--2---2-----2----0--2---
-------------------------------------------------

-------------------------------------------------
-------7---9-------------------------------------
-4-----7---9-------------------------------------
-4-----7---9-------------------------------------
-2-----5---7-------------------------------------
-----------0-------------------------------------
Play the above three times, then this:

-------------------------------------------------
-------------------------------------------------
-4----4--4---4-----4----4--4---4-----4----4--4---
-4----4--4---4-----4----4--4---4-----4----4--4---
-2----0--2---2-----2----0--2---2-----2----0--2---
-------------------------------------------------

--------0-------------------------------------0--
--------0-----------4-------------------------0--
-4------1-----------4-------------------------1--
-4------2-----------4-------------------------2--
-2------2-----------2-------------------------2--
--------0-------------------------------------0--
Chorus  (guitars 1&2)

-----------------2-------------------------------
-4---------------3-------------------------------
-4----2-----1----2-------------------------------
-4----2-----2----0-------------------------------
-2----0-----2-------0----------------------------
------------0------------------------------------

End chorus:

----------0-0-0-0-0-0-0-0-0-0-0------------------
-4--------0-0-0-0-0-0-0-0-0-0-0--15^(17)--15^(17)
-4----2---1-1-1-1-1-1-1-1-1-1-1------------------
-4----2---2-2-2-2-2-2-2-2-2-2-2------------------
-2----0---2-2-2-2-2-2-2-2-2-2-2------------------
----------0-0-0-0-0-0-0-0-0-0-0------------------
                ~~~~                         ~~~~
---------------------------------17--------------
-12--15(17)--12/-------17^(19)-----17--17^(19)---
-------------------------------------------------
-------------------------------------------------
-------------------------------------------------
-------------------------------------------------

Guitar Solo

-------------------------------------------------
-------------------------------------------------
-------------------------------------------------
------------7--9-9----9---11^(13)----11^(13)-(13)
--------7-9--------11----------------------------
-7---10------------------------------------------
                         )(12)
------------------------/------7-----------------
----------------------10--------10-7--7-------)--
------------------------------------9--9-7---7---
-11^(13)^9----9/---------------------------9-----
-----------11------------------------------------
-------------------------------------------------
        pm
--------------------------------14-----------14--
-----------7-10--12--15-15^(17)----15^(17)-------
-------9-----------------------------------------
-9-9-----9---------------------------------------
-------------------------------------------------
-------------------------------------------------

-------------------------------------------------
-14^(16)^12-14^12---12---14^(16)^12--14----12----
------------------13--------------------13---14^
-------------------------------------------------
-------------------------------------------------
-------------------------------------------------

---------------------------------------14------14
-----15-15^(17)--(16)-15-14/----15^(16)--15-12---
-(16)--------------------------------------------
-------------------------------------------------
-------------------------------------------------
-------------------------------------------------

-------14----------------------------------------
-15-12----15-12/---17^(19)^17-15-17-17^(19)^15--
-------------------------------------------------
-------------------------------------------------
-------------------------------------------------
-------------------------------------------------
                     ~~~~~~
-------17--------------------------19------------
-17^(19)--17(19)17(19)-----19^(21)----19^(21)-(21
-------------------------------------------------
-------------------------------------------------
-------------------------------------------------
-------------------------------------------------
       ~~~~~~~
-----------------------------------------22------
-19^(21)---------22^(24)--(24)^22--22^(24)--(24)-
-------------------------------------------------
-------------------------------------------------
-------------------------------------------------
-------------------------------------------------

-------------------------------------------------
-^22--19--22^(24)---22^(24)/---17^(19)--------/--
-------------------------------------------------
-------------------------------------------------
-------------------------------------------------
-------------------------------------------------

These are the post-chorus chords:

-----------------------------------------0-------
--------------------------9-----4--------0-------
--------------------------9-----4--------1-------
-4--------4--------4------9-----4--------2-------
-4--------4--------4------7-----2--------2-------
-2--------2--------2------0--------------0-------

This is the lead bit before the end:
       ~~~~~~~~
---------------7---------------------------------
-10^(12)--------10-7---------------10--------7---
--------------------7^9^7^9^7^9--7----7^9^7^9--9-
-------------------------------9-----------------
-------------------------------------------------
-------------------------------------------------
                                             ~~~~
-------------------------------------------------
-------------------------------------------------
-7-9-7-9--7-7--------------------9--7/----7------
------9-9--9--9-7-9-7---9--7--/9-------/9----9---
----------------------9--------------------------
-------------------------------------------------


Note: This song is tuned down 1/4 of a step, I don't know why,
but it is like most of the songs on the album High Voltage.
Hope this gives you fun, it should be mostly correct. I apologize
for not tabbing the improvised stuff in the end when the chorus is
happening, but it is hard to hear on my record and i'm also getting
quite tired.... it takes a long time to figure this stuff out...

 AC/DC Rocks!!!

-Adam

Key:

2^(4) = bend, to the number in parentheses
2^4 = hammer on
4^2 = pull off
/ = slide
<15> = artificial harmonic
pm = palm mute
x = muted string
17(19) = pre bend
~~~ = vibrato
    )(14)
   /       = really long bending note
  /
12

order of riffs:

rhythm fig. 1 x2
rhythm fig. 2 x4

intro solo, rhythm guitar with rhythm fig. 3
rhythm fig. 3 x3

Chorus x2
post chorus x1
rhythm fig. 3 x3

chorus x3
guitar solo , rhythm guitar with rhythm fig. 3
the chords after the solo

chorus x6
then the lead bit at the end, and you're done
ⓘ Guitar tab for 'Rock N Roll Singer' by AC/DC, a hard rock band formed in 1973 from Sydney, Australia. AC/DC is known for their energetic rock/pop music.