Log in

One click and you are in

Login with Facebook Login with Google

Why sign up and log in

Guitar Tabs Explorer
AC/DC tabs for Overdose

Guitar tabs

Intro:
|-----------------2--------|------------------|
|------------0-------------|------------------|
|-------2------------------|------------------|
|--------------------------|------------------|
|--2-----------------------|------------------|
|--------------------------|------------------|

|-----------------0--------|------------------|
|------------0-------------|------------------|
|-------1------------------|------------------|
|--------------------------|------------------|
|--------------------------|------------------|
|--0-----------------------|------------------|

|-----------------2--------|------------------|
|------------0-------------|------------------|
|-------2------------------|------------------|
|--------------------------|------------------|
|--2-----------------------|------------------|
|--------------------------|------------------|

|-----------------0--------|------------------|
|------------0-------------|------------------|
|-------1------------------|--1---------------|
|--------------------------|--2---------------|
|--------------------------|--2---------------|
|--0-----------------------|--0---------------|
With Drums/Bass:
|-----------------2--------|------------------|
|------------0-------------|------------------|
|-------2------------------|------------------|
|--------------------------|------------------|
|--2-----------------------|------------------|
|--------------------------|------------------|

|-----------------0--------|------------------|
|------------0-------------|------------------|
|-------1------------------|------------------|
|--------------------------|------------------|
|--------------------------|------------------|
|--0-----------------------|------------------|

|-----------------2--------|------------------|
|------------0-------------|------------------|
|-------2------------------|------------------|
|--------------------------|------------------|
|--2-----------------------|------------------|
|--------------------------|------------------|

|------------------0-------|------------------|
|-------------0------------|------------------|
|-------1------------------|------------------|
|--------------------------|------------------|
|--------------------------|------------------|
|--0-----------------------|------------------|
With 2nd Guitar:
|-----------------2--------|------------------|
|------------0-------------|------------------|
|-------2------------------|------------------|
|--------------------------|------------------|
|--2-----------------------|------------------|
|--------------------------|------------------|

|-----------------0--------|------------------|
|------------0-------------|------------------|
|-------1------------------|------------------|
|--------------------------|------------------|
|--------------------------|------------------|
|--0-----------------------|------------------|

|-----------------2--------|------------------|
|------------0-------------|------------------|
|-------2------------------|------------------|
|--------------------------|------------------|
|--2-----------------------|------------------|
|--------------------------|------------------|
                                    Verse Riff:
|-----------------0--------|------------------|
|------------0-------------|------------------|
|-------1------------------|---------------4--|
|--------------------------|---------------4--|
|--------------------------|---------------2--|
|--0-----------------------|------------------|

|--------------------------|------------------|
|------3-------------------|------3-----------|
|------2------------4------|------2----------4|
|------0----2-------4------|------0----2-----4|
|-----------2----x--2------|-----------2--x--2|
|-----------0----x---------|-----------0--x---|

|--------------------------|------------------|
|------3-------------------|------3-----------|
|------2------------4------|------2----------4|
|------0----2-------4------|------0----2-----4|
|-----------2----x--2------|-----------2--x--2|
|-----------0----x---------|-----------0--x---|

Chorus: I Overdosed On You
|--------------------------|------------------|
|--------------------------|---------------3--|
|------4----4--4--4--------|--1------------2--|
|------4----2--2--2--------|--2------------0--|
|------2----2--2--2--------|--2---------------|
|--------------------------|--0---------------|

|--------------------------|------------------|
|--------------------------|---------------3--|
|--------------------------|--1------------2--|
|--------------------------|--2------------0--|
|--------------------------|--2---------------|
|--------------------------|--0---------------|

|--------------------------|------------------|
|--------------------------|---------------3--|
|--------------------------|--1------------2--|
|--------------------------|--2------------0--|
|--------------------------|--2---------------|
|--------------------------|--0---------------|

|--------------------------|------------------|
|--------------------------|------------------|
|--------------------------|--1---------------|
|--------------------------|--2---------------|
|--------------------------|--2---------------|
|--------------------------|--0---------------|

|--------------------------|------------------|
|--3------3---3------------|----3-------------|
|--2------2---2---4--------|----2------------4|
|--0------0---0---4--------|----0----2-------4|
|-----------------2--------|---------2----x--2|
|--------------------------|---------0----x---|

Nyce Tune!

Almost there ...

Sign in to get your own page with links to favourite songs and more. You are just one click away...

Login with Facebook Login with Google