Log in

One click and you are in

Login with Facebook Login with Google

Why sign up and log in

Guitar Tabs Explorer
AC/DC tabs for Moneytalks

Guitar tabs

Moneytalks by AC/DC (Young/Young) 'The Razors Edge' (1990) Tab by S.Mueller
----------

fig 1a Guitar 1 (A chord diagramG+G A chord diagramGsus2Gsus2 A chord diagramG+G A chord diagramGsus2Gsus2 A chord diagramCsus2Csus2)

|e ------------------|--------------|---------------|---------------|
|b --3---3--3-3--1---|--1-1-1--1--1-|-3-3--3-3--1---|-1-1----1----1-|
|g --4---2--4-2--0---|--4-2-0--2--0-|-4-2--4-2--0---|-4-2--0-0-2--0-|
|A chord diagramD MajorD --0---0--0-0--0---|--------------|-0-0--0-0--0---|---------------|
|A chord diagramA augmentedA --------------3---|--------------|-----------3---|---------------|
|A chord diagramE MajorE --3---3--3-3------|--------------|-3-3--3-3------|---------------|

    fig 1b  GTR.2                                                   |
|e --7---5--7-5--8---|--7-5----5----|-7-5--7-5--8---|-7-x----x-x--x-|
|b --8---8--8-8--8------8-8-8--8--8---8-8--8-8--8---|-8-10\8-8-10-8-|
|g --7---7--7-7--9------5---7-----7---7-7--7-7--9---|-7-7----7-7--7-|
|A chord diagramD MajorD -------------------------------------------------|---------------|
|A chord diagramA augmentedA -------------------------------------------------|---------------|
|A chord diagramE MajorE -------------------------------------------------|---------------|

  Fig. 2a (4x) Gtr.1  Fig. 2b (4x) with Gtr.2
e ----------------| e ----------------|
b -3--3-----------| b ----------------|
g -0--0-----------| g ----------------| (2 times)
A chord diagramD MajorD -0--0-----------| A chord diagramD MajorD ----------------|
A chord diagramA augmentedA ---------1-2----| A chord diagramA augmentedA -5--5----1-2----|
A chord diagramE MajorE -3--3--3-----3--| A chord diagramE MajorE -3--3--3-----3--|
Fig.3 A chord diagramD5D5
...claim is on you     the sights ...
e ----------------------------------------------------------
b -3-----------3------------3------------3---------3----3---
g -2-----------2------------2------------2---------2----2---
A chord diagramD MajorD -0-----------0-0-3-4-0----0------------0-0-3-4-0-0----0---
A chord diagramA augmentedA ----------------------------------------------------------
A chord diagramE MajorE ----------------------------------------------------------
                                          A chord diagramC5C5      Fig.4 (4 Times)
  do,      that`s guaranteed? ...
e ----------------------------------------------------------
b -3-------------3------3-----------------------------------
g -2-------------2------2-----------------5------5----------
A chord diagramD MajorD -0-0-3-4-0-----0------0---0-3-4-0-------5------5----1-2---
A chord diagramA augmentedA ----------------------------------------3------3--3-----3-
A chord diagramE MajorE ----------------------------------------------------------

A chord diagramG+G               A chord diagramC5C5              Gtr.1 & 2
come on,come on ...

e ------------------------------------------
b -3--3----3--3-----1---1--1--1--1--1-------
g -4--2----4--2-(0)-0---0--0--0--0--0-------   Guitar 2 plays (0)
A chord diagramD MajorD -0--0----0--0-----------------------------
A chord diagramA augmentedA ------------------3---3--3--3--3--3-------
A chord diagramE MajorE -3--3----3--3-----------------------------
A chord diagramG5G5                  A chord diagramD5D5       (pick scratch)
come on,come on     listen to ....
e ------------------------------------------
b -3--3----3--3-----3---------------3----3--
g -4--2----4--2-(0)-2---------------2----2--
A chord diagramD MajorD -0--0----0--0-----0---------------0----0--
A chord diagramA augmentedA ------------------0--------x\-----0----0--
A chord diagramE MajorE -3--3----3--3--------------x\\------------
                               \

Other versions of Moneytalks

MoneytalksChords
Moneytalks (Ver. 2)Tabs

Almost there ...

Sign in to get your own page with links to favourite songs and more. You are just one click away...

Login with Facebook Login with Google