Log in

One click and you are in

Login with Facebook Login with Google

Why sign up and log in

Guitar Tabs Explorer
AC/DC tabs for Money talks (Ver. 2)

Intro

-|-------------------------------------------|-
-|--12--10--12--10--13-----12--10--8--10--8--|-
-|---0---0---0---0---0--0-------0--0---0--0--|-
-|-------------------------------------------|-
-|-------------------------------------------|-
-|-------------------------------------------|-
-|-------------------------------------------|-
-|--12--10--12--10--13--12--10--8--8--10--8--|-
-|---0---0---0---0---0---0---0--0--0---0--0--|-
-|-------------------------------------------|-
-|-------------------------------------------|-
-|-------------------------------------------|-


-|-------------------------------------------|-
-|--12--10--12--10--13-----12--10--8--10--8--|-
-|---0---0---0---0---0--0---0---0--0---0--0--|-
-|-------------------------------------------|-
-|-------------------------------------------|-
-|-------------------------------------------|-


-|-------------------------------------------|-
-|--12--10--12--10---------------------------|-
-|---0---0---0---0--7------------------------|-
-|------------------7------------------------|-
-|------------------5------------------------|-
-|-------------------------------------------|-

Other versions of Money Talks

Money talksTabs
Money talks (Ver. 2)Tabs
Money talks - introTabs

Almost there ...

Sign in to get your own page with links to favourite songs and more. You are just one click away...

Login with Facebook Login with Google