Log in

One click and you are in

Login with Facebook Login with Google

Why sign up and log in

Guitar Tabs Explorer
AC/DC tabs for Little lover

Guitar tabs with lyrics

Little Lover by AC/DC (Young/Young/Scott) 'High Voltage'(Australia 1974)
------------                              Tab by S.Mueller

b=bend r=release tr=trill ~=Hand Vibrato
Chords used:
    A chord diagramE MajorE A chord diagramA augmentedA A chord diagramD MajorD g b e        A chord diagramE MajorE A chord diagramA augmentedA A chord diagramD MajorD g b e
A chord diagramA5A5 =5 7 x x x x    A chord diagramC5C5 =3 5 x x x x
A chord diagramA major 6A6 =5 9 x x x x    A chord diagramC6C6 =3 7 x x x x
A chord diagramA#A# =6 8 x x x x    A chord diagramD5D5 =5 7 x x x x
A chord diagramB5B5 =7 9 x x x x    A chord diagramD6D6 =5 9 x x x x
A chord diagramB6B6 =7 11 x x x x   D#5=6 8 x x x x
                   D#6=6 10 x x x x

Pattern 1   over Verse
   A chord diagramG5G5                                   A chord diagramE minor 7Em7                   ~~~~~~
e|------------------------------------|-----3-3----3-5-3-5-3--3------\--------|
b|------------------------------------|-----3-3----3-5-3-5-3--3------\--------|
g|--------0--0-----0-----0--0----0----|---------------------------------------|
A chord diagramD MajorD|--------0--0-----0-----0--0----0----|---------------------------------------|
A chord diagramA augmentedA|------------------------------------|---------------------------------------|
A chord diagramE MajorE|-3---3-------3------3-------------3-|-0-0------0----------------------------|
   A chord diagramG5G5                                   A chord diagramE minor 7Em7                      endpattern
e|------------------------------------|-----3-3----3-5-3-5-3--3-3-------------|
b|------------------------------------|-----3-3----3-5-3-5-3--3-3----3--------|
g|--------0--0----0-0----0--0----0----|---------------------------------------|
A chord diagramD MajorD|--------0--0----0-0----0--0----0----|---------------------------------------|
A chord diagramA augmentedA|------------------------------------|--------------------------------0------|
A chord diagramE MajorE|-3---3-------3-----3--3------3----3-|-0-0------0----------------------------|
  Bridge (Oohh,Baby..)
    A chord diagramA5A5    A chord diagramA major 6A6  A chord diagramA5A5      A chord diagramA major 6A6                            A chord diagramC5C5
e|----------------------------------------------------------------------------|
b|----------------------------------------------------------------------------|
g|--2---2-----2-2---2-----2-2---2-----2-2---2----2--5---5-5---5-5---5-5---5-5-|
A chord diagramD MajorD|--2---2-4---2-2---2-4---2-2---2-4---2-2---2-4--2--5---5-5---5-5---5-5---5-5-|
A chord diagramA augmentedA|--0---0-0---0-0---0-0---0-0---0-0---0-0---0-0--0--3---3-3---3-3---3-3---3-3-|
A chord diagramE MajorE|----------------------------------------------------------------------------|

e|------------------|
b|------------------|
g|---5-5---5-5---5--|
A chord diagramD MajorD|---5-5---5-5---5--|
A chord diagramA augmentedA|---3-3---3-3---3--|
A chord diagramE MajorE|------------------|
  Chorus (little lover...)
   No Chord            A chord diagramE minor 7Em7
e|---------------------3---|    |--------------------------------------|
b|---------------------3---|    |--------------------------------------|
g|---------------------2---|    |--------------------------------------|
A chord diagramD MajorD|2---0--------------------|3x  |---2--0-----2--0-----2--0----2--0-----|
A chord diagramA augmentedA|-------2-----------------|    |--------------------------------------|
A chord diagramE MajorE|----------3--0----0------|    |-0-------3--------3-------3-------3---|
  Guitar Solo
    A chord diagramG5G5   A chord diagramG6G6 A chord diagramG5G5 A chord diagramG6G6 A chord diagramG5G5   A chord diagramG6G6   A chord diagramG5G5   A chord diagramG#5G#5     A chord diagramA5A5  A chord diagramA major 6A6 A chord diagramA5A5   A chord diagramA major 6A6 A chord diagramA5A5       A chord diagramA major 6A6
    tr~~~~~~~~~~~~~~~~~~~ tr~~~~         tr~~~~~~~~~~~b                    b r
e|-----------------|-----------------|-----------------|---5------------------|
b|--3--(6)---------|------4--(7)-----|---5--(8)------8-|10---8-7-5-5----------|
g|-----------------|-----------------|-----------------|----------7--7-5-7-9-7|
A chord diagramD MajorD|-----------------|-----------------|-----------------|----------------------|
A chord diagramA augmentedA|-----------------|-----------------|-----------------|----------------------|
A chord diagramE MajorE|-----------------|-----------------|-----------------|----------------------|
      A chord diagramA5A5             A chord diagramA#5A#5    A chord diagramB5B5        A chord diagramB6B6       A chord diagramB5B5            A chord diagramB6B6           A chord diagramB5B5
      b~~~~~~~~~~~~~~       b  r ~~~~~           b ~~~~~~
e|-----------------------------------------7--------------7-10-7--------------|
b|-------------------------9-10--9----7-10---7-10-12-------------10-7-7-------|
g|-5-7-9--------------\----9-11--9--------------------------------------9-7-9-|
A chord diagramD MajorD|----------------------------------------------------------------------------|
A chord diagramA augmentedA|----------------------------------------------------------------------------|
A chord diagramE MajorE|----------------------------------------------------------------------------|
             A chord diagramB6B6      A chord diagramB5B5                         A chord diagramC5C5        A chord diagramC6C6  A chord diagramC5C5
                           ~~~~~~                b  ~~~~~~  b  r       b  r
e|----------------------------------------8-----------------------------------|
b|-------------------------------------/8---8--11-13------11-13-11-8-10-11-10-|
g|7----9--7-------------------------------------------------------------------|
A chord diagramD MajorD|--9--------9--7--7--7--7-9-----\--------------------------------------------|
A chord diagramA augmentedA|----------------------------------------------------------------------------|
A chord diagramE MajorE|----------------------------------------------------------------------------|

   A chord diagramC6C6     A chord diagramC5C5    A chord diagramD5D5             A chord diagramD6D6  A chord diagramD5D5  A chord diagramD#5D#5            A chord diagramD#6D#6  A chord diagramD#5D#5 ...lover
  ~~~~~~~~~~~~   b     b        b           b   r     b    r  b
e|----------------------------------------------------------------------------|
b|----------------13----13-------13-\-----15-16--15-15-16---15-13--15-17------|
g|9------------12-14-12-14----12-14-\-----------------------------------------|
A chord diagramD MajorD|----------------------------------------------------------------------------|
A chord diagramA augmentedA|----------------------------------------------------------------------------|
A chord diagramE MajorE|----------------------------------------------------------------------------|
              Outro (Bluesy Feeling both Guitars)
 / A chord diagramG5G5                                            b  r     b              b   \
e|----------------------------------|----------17-19-17-17-19-17-15-15-17-19--|
b|----------------------------------|-----------------------------------------|
g|----------------------------------|-----------------------------------------|
A chord diagramD MajorD|----------------------------------|-----------------------------------------|
A chord diagramA augmentedA|----------------------------------|-----------------------------------------|
A chord diagramE MajorE|----------------------------------|-----------------------------------------|
 |                                              b r                           |
e|----------------------------------|-----------------------------------------|
b|--------------3--3----------------|-----3--3---2------3--3--------3--3------|
g|--------0-----0--0----------------|-----0--2-2-3-2----0--0------2----0------|
A chord diagramD MajorD|--------0--2------------------0---|-2--------------2------------------------|
A chord diagramA augmentedA|----------------------------------|-----------------------------------------|
A chord diagramE MajorE|-3---3----------------------------|-----------------------------------------|
  \........................................................................../

 / A chord diagramE minor 7Em7            b  r    ~~~~~~~~                 b    ~~~~~~~~~            \
e|--------------14-15-14-12---------|----------19-----------------------------|
b|----------------------------------|------------19-20--17--------------------|
g|----------------------------------|-----------------------------------------|
A chord diagramD MajorD|----------------------------------|-----------------------------------------|
A chord diagramA augmentedA|----------------------------------|-----------------------------------------|
A chord diagramE MajorE|----------------------------------|-----------------------------------------|
 |                             ~~~~~~          ~~~~~~~~           ~~~~~~~~~~~ |
e|------------------------5----5----|-------------------0---------------------|
b|------------------------3----5----|-----------------------------------------|
g|----------------------------------|-----------------------------------------|
A chord diagramD MajorD|----------------------------------|----0-----2------------------2-----------|
A chord diagramA augmentedA|----------------------------------|-----------------------------------------|
A chord diagramE MajorE|-0----0--0------------------------|--0-------------------3---0--------------|
  \........................................................................../

 / A chord diagramG5G5               ~~~~~~~~~~                           ~~~                 \
e|------------3--5--3---------------|------3----------------------------------|
b|------3--5------------------------|-------------5------3--------------------|
g|--------------------------------3-|-4---------------------------------------|
A chord diagramD MajorD|----------------------------------|-----------------------------------------|
A chord diagramA augmentedA|----------------------------------|-----------------------------------------|
A chord diagramE MajorE|----------------------------------|-----------------------------------------|
 |                                                                            |
e|----------------------------------|-----------------------------------------|
b|------------------3------3--3-----|-3-----------5--3---3----------3---------|
g|------------------0------2--0-----|-0-----2-4------2-0-2-0----0-2-----0-----|
A chord diagramD MajorD|----------0--2--------------------|------------------------2----------------|
A chord diagramA augmentedA|----------------------------------|-----------------------------------------|
A chord diagramE MajorE|--3----3--------------------------|---------------------------------------3-|
  \........................................................................../

  / A chord diagramE minor 7Em7                  ~~~~~~~~~~~      b  r                               \
e|------------------10-9-7----------|----9-10-9-7-7---------------------------|
b|----------------------------------|---------------------------------7-------|
g|----------------------------------|-----------------------------------------|
A chord diagramD MajorD|----------------------------------|-----------------------------------------|
A chord diagramA augmentedA|----------------------------------|-----------------------------------------|
A chord diagramE MajorE|----------------------------------|-----------------------------------------|
 |                                                 ~~~~~~~~~~                 |
e|----------------------------------|-----------------------------------------|
b|----------------------------------|-----------------------------------------|
g|----------------------------------|------------------------0----------------|
A chord diagramD MajorD|---------0--0-----0--2-----2------|----2---------2--------------------------|
A chord diagramA augmentedA|----------------------------------|-----------------------------------------|
A chord diagramE MajorE|--0---0--------0--------3------0--|3------0-3-------------------0---0-------|
  \........................................................................../

  / A chord diagramG5G5        b                                        A chord diagramE minor 7Em7 b r                \
e|----------------------------------------------------|-----------------------|
b|-----8--8-10-12-8-8--8------------------------------|---7-8-7--5--5---------|
g|9-----------------------9-7----/-9------------------|-----------------6-----|
A chord diagramD MajorD|----------------------------------------------------|-----------------------|
A chord diagramA augmentedA|----------------------------------------------------|-----------------------|
A chord diagramE MajorE|----------------------------------------------------|-----------------------|
 |                                                                          ~~|
e|----------------------------------------------------|-----------------------|
b|------------------3------------3/5\3--3-------------|-----------------------|
g|-----0--0------0--0----------------------------0----|-----------------------|
A chord diagramD MajorD|-----0--0------------------------0------------------|----------------0-2--2-|
A chord diagramA augmentedA|----------------------------------------------------|-----------------------|
A chord diagramE MajorE|3--3---------3-----3---3---3---3/5\3-----3--3-----2-|0---0--0--0--0---------|
  \........................................................................../

Almost there ...

Sign in to get your own page with links to favourite songs and more. You are just one click away...

Login with Facebook Login with Google