Log in

One click and you are in

Login with Facebook Login with Google

Why sign up and log in

Guitar Tabs Explorer
AC/DC tabs for Lets get it up

Guitar tabs

Let's get it up (Young/Young/Johnson) by AC/DC   Tabed by S.Mueller
---------------               'For Those About To Rock (We Salute You)' (1981)

    (A chord diagramE MajorE)         A chord diagramA augmentedA  A chord diagramD/AD/A      (A chord diagramE MajorE)         A chord diagramA augmentedA  A chord diagramD/AD/A   A chord diagramA augmentedA
e|-----------------------|--------------------------|
b|--------------2--3--3--|--------------2--3--3--2--| Pattern 1
g|--------------2--2--2--|--------------2--2--2--2--|
A chord diagramD MajorD|-----------2--2--4--4--|-----------2--2--4--4--2--|
A chord diagramA augmentedA|---------2----0--0--0--|---------2----0--0--0--0--|
A chord diagramE MajorE|---0-2/4---------------|---0-2/4------------------|
   A chord diagramA5A5 A chord diagramB5B5  A chord diagramE MajorE        A chord diagramA5A5 A chord diagramB5B5  A chord diagramB5B5
e|--------0---|--------------|        Pattern 2 (Verse)
b|--------0---|--------------|
g|-2--4---1---|----2--4---4--| X 2
A chord diagramD MajorD|-2--4---2---|----2--4---4--|
A chord diagramA augmentedA|-0--2---2---|----0--2---2--|
A chord diagramE MajorE|--------0---|--------------|
(I'm gonna get it up.)...
                A chord diagramBB     A chord diagramE MajorE         A chord diagramBB    A chord diagramE MajorE    A chord diagramBB  A chord diagramA augmentedA
             e|-------0--0-----------0-------------------0--| Pattern 3
             b|-4--4--0--0------4----0----4------------0-2--|
             g|-4--4--1--1------4----1----4--------------2--|
             A chord diagramD MajorD|-4--4--2--2------4----2----4--2------2----2--|
             A chord diagramA augmentedA|-2--2--2--2------2----2----2--0------0----0--|
             A chord diagramE MajorE|-------0--0-----------0----------------------|

With Pattern 1
    b   ~~~~~                     b    ~~~~~
e|----------------------------------------------------------------------------|
b|----------------------------------------------------------------------------|
g|-7-9--------7--7--7--7\6--4----7-9---------7--7--7--7-----------------------|
A chord diagramD MajorD|-----------------------------7---------------------------7------------------|
A chord diagramA augmentedA|----------------------------------------------------------------------------|
A chord diagramE MajorE|----------------------------------------------------------------------------|
Gtr.1
     b      b   ~                ~~    b     b    b
e|---------------|--7--------------|-----------------|---------7----------------
b|-10-12--10-12--|----10-7---7-----|------10-------10\-10-12-10--10-7---7-------
g|---------------|---------9--7----|--9-11--9-11-9-11\----------------10-10-9-7-
A chord diagramD MajorD|---------------|--------------9--|-----------------|-------------------------9
A chord diagramA augmentedA|---------------|-----------------|-----------------|--------------------------
A chord diagramE MajorE|---------------|-----------------|-----------------|--------------------------
  Pattern 4 (GTR. 2 over Solo)                                                |
 |    A chord diagramA augmentedA  A chord diagramBB   A chord diagramE MajorE     A chord diagramA augmentedA   A chord diagramBB              A chord diagramA augmentedA      A chord diagramBB     A chord diagramE MajorE      A chord diagramD/AD/A         A chord diagramA augmentedA       |
e|---------------|-----------------|-----------------|----2--2-2-2------------|
b|---------------|-----------4-----|-----------------|----3--3-3-3----2-------|
g|----2--4-4-1---|-2---4--4--4-----|--2--4-4-1-----1-|----2--2-2-2----2-------|
A chord diagramD MajorD|----2--4-4-2---|-2---4--4--4-----|--2--4-4-2-----2-|-2--0--0-0-0----2-------|
A chord diagramA augmentedA|----0--2-2-2---|-0---2--2--2-----|--0--2-2-2-----2-|-2--0--0-0-0----0-------|
A chord diagramE MajorE|-----------0---|-----------------|---------0-----0-|-0----------------------|
  \.........................................................................../
Gtr.1 (cont.)
          ~~~~~      b  hb         b                 ~~~      b   r        b
e|----------------------------------------------------------------------------|
b|------------------------10--10---10--\---10--12--12---12--14-16--14-12-15-17|
g|-9-7---------7----9-11-(11)--9-9-11--\---11--13--13---13--------------------|
A chord diagramD MajorD|-----9-9--------------------------------------------------------------------|
A chord diagramA augmentedA|----------------------------------------------------------------------------|
A chord diagramE MajorE|----------------------------------------------------------------------------|
    b   ~~~~~~     b                b   r                   ~~~~~~       b
e|---------------------------------------------------------------------17-19--|
b|15-17-------15----16------------17-19----17--15---17-15---------------------|
g|----------------------16-16--------------------16-------16-------\----------|
A chord diagramD MajorD|----------------------------------------------------------------------------|
A chord diagramA augmentedA|----------------------------------------------------------------------------|
A chord diagramE MajorE|----------------------------------------------------------------------------|
             b      ~~          b                   b      b      b      b  ~~~
e|-17---14--------------------22-24--22----19---------------------------------|
b|---------17-18--17---15---------------------19--22-24--22-24--22-24--22-24--|
g|------------------------16--------------------------------------------------|
A chord diagramD MajorD|----------------------------------------------------------------------------|
A chord diagramA augmentedA|----------------------------------------------------------------------------|
A chord diagramE MajorE|----------------------------------------------------------------------------|
         b    r                   b          b        b      b            b
e|---------------------------------------------------------------19-----22-24-|
b|22---22-24---22-19-----------------------------22-----------------19--------|
g|-------------------21-23-21--19--20------21-23----21-23--21-23--------------|
A chord diagramD MajorD|----------------------------------------------------------------------------|
A chord diagramA augmentedA|----------------------------------------------------------------------------|
A chord diagramE MajorE|----------------------------------------------------------------------------|
              b  ~~~~
e|22-19-------------------|
b|------19--22-24-----\---|
g|------------------------|
A chord diagramD MajorD|------------------------|
A chord diagramA augmentedA|------------------------|
A chord diagramE MajorE|------------------------|

Outro:
   A chord diagramA augmentedA                                                (A chord diagramE MajorE)        A chord diagramA augmentedA  A chord diagramD/AD/A
e|----------------------------------------------------------------------------|
b|-2--2--2--2--2---2--2--2--2--2--2--2--2--2--2--2-------------2--2--2--------|
g|-2--2--2--2--2---2--2--2--2--2--2--2--2--2--2--2-------------2--3--3--------|
A chord diagramD MajorD|-2--2--2--2--2---2--2--2--2--2--2--2--2--2--2--2----------2--2--4--4--------|
A chord diagramA augmentedA|-0--0--0--0--0---0--0--0--0--0--0--0--0--0--0--0--------2----0--0--0--------|
A chord diagramE MajorE|--------------------------------------------------0-2-4---------------------|
   >        >         >        >        >

Other versions of Lets Get It Up

Lets get it up (Ver. 2)Tabs

Almost there ...

Sign in to get your own page with links to favourite songs and more. You are just one click away...

Login with Facebook Login with Google