Log in

One click and you are in

Login with Facebook Login with Google

Why sign up and log in

Guitar Tabs Explorer
AC/DC tabs for Jailbreak1

Guitar tabs

Rhythm Figure 1 (x5)
--------------------------------------------------
------------------3----2-----------3----2---------
------------------2----2-----------2----2---------
----0^2--2--------0----2-0^2-------0----2---------
----0^2--2-------------0-0^2------------0---------
-x--0----0----x----------0------x-----------------

--------------------------------------------------
--------------------------------------------------
--------------------------------------------------
--------------------------------------------------
--------------------------------------------------
-0------------------------------------------------
  *tune down A chord diagramE MajorE string gradually

play Rhythm fig. 1 again (x8)

Rhythm Fig. 2

--------------------------------------------------
----------------3---3-3-----3-----3---------------
-2--------------2---2-2-----2-----2-----2---------
-2--------------4---4-4-----4-----4-----2---------
-0--------------0---0-0-----0-----0-----0---------
--------------------------------------------------

--------------------------------------------------
-3---3-3-----3------------------------------------
-2---2-2-----2-----2---4--------------------------
-4---4-4-----4-----2---4----------2-----2------2--
-0---0-0-----0-----0---2----------2-----2------2--
----------------------------------0-----0------0--

--------------------------------------------------
--------------------------------------------------
-4--------------7-----7------7--------------------
-4--------------7-----7------7--------------------
-2--------------5-----5------5--------------------
----------0---------------------------------------

Chorus     play about 7 times
              ~~~~                  ~~~~
--------------------------------------------------
--------------------------------------------------
--------------------------------------------------
--------------------------------------------------
---------------5----4---------------5----4--------
-0----0-2/4-0---------0----0-2/4-0----------0-----

Then play Rhythm fig. 1 (x8)
Then Rhythm fig. 2 (x1)
Then the Chorus (x4)

Guitar Solo

---------17---------------17----------------------
-20^(22)----20^(22)----------20^17----17----------
-----------------------------------19-----19^(21)-
--------------------------------------------------
--------------------------------------------------
--------------------------------------------------
             ~~~~~~~~
--------------------------------------------------
-19---19------------------------------------------
-19---19----17-----------------------------------
--------------------------------------------------
--------------------------------------------------
-------------------------------------------5----5-
  ~~~~~~~~~
---------------------17^(19)---17^(19)--17^14-----
----------------------------------------------17^-
--------------------------------------------------
--------------------------------------------------
--------------------------------------------------
-5^(7)-------^0----------------------------------

------14-------14--------17----(17)--------------
-(19)----17(19)---17(19)----17^(19)--------------
--------------------------------------------------
--------------------------------------------------
--------------------------------------------------
--------------------------------------------------

Spotlights!             Sirens!          Rifles!
      ~~~~~~~~~~~~~     TR
--------------------------------------------------
------------------------15------------------------
------------------------16------------------------
------------------------14------------------------
------12------------------------------------------
------12------------------------------------x-----

Firin'!

--------------------------------------------------
--------------------------------------------------
--------------------------------------------------
--------------------------------------------------
--------------------------------------------------
----x---------------------------------------------

Then Repeat the chorus over again and fade out.

🏷Legend of Symbols:

^  - Hammer on or pull off
/  - slide up
  - slide down
^( )  - bend to number indacated
~~~~~ - vibrato
x  -muffled string
TR  -Trill

I'm 99% sure that this is correct, so have fun!
Rock on AC/DC!

Other versions of Jailbreak1

JailbreakTabs
Jailbreak (Ver. 2)Tabs
Jailbreak - introTabs

Almost there ...

Sign in to get your own page with links to favourite songs and more. You are just one click away...

Login with Facebook Login with Google