Log in

One click and you are in

Login with Facebook Login with Google

Why sign up and log in

Guitar Tabs Explorer
AC/DC tabs for Heatseeker

Guitar tabs

A chord diagramE5E5                                                                        A chord diagramB5B5
e|----------------------------------------------------------0-----0---0-------|
b|-x-----5----------------5----------------5--5--5--5-------0-----0---0-------|
g|-x-4---4-4--4--4--2--4--4-4--4--4--2--4--4--4--4--4--0-1--------1---1-----4-|
A chord diagramD MajorD|-x-4---2-2--2--2--2-------2--2--2--2--------2--2--2----------x---------0--4-|
A chord diagramA augmentedA|-x-2---------------------------------------------------------x---------0--2-|
A chord diagramE MajorE|-x--------------------------------------------------------------------------|

Pattern 1:
  A chord diagramBB
e|----------------------------------------------------------------------------|
b|----------------------------------------------------------------------------|
g|--4-----4---4--4-----4--4--4--4--4-----4--4----4-----4---4--4-----4--4--4--4|
A chord diagramD MajorD|--2--4--4---4--2--4--4--4--4--4--2--4--4--4----2--4--4---4--2--4--4--4--4--4|
A chord diagramA augmentedA|2---------2----------2-----------------------2---------2----------2---------|
A chord diagramE MajorE|----------------------------------------------------------------------------|
          end P1
e|-------------|
b|-------------|
g|-4-----4--4--|
A chord diagramD MajorD|-2--4--4--4--|
A chord diagramA augmentedA|-------------|
A chord diagramE MajorE|-------------|

Pattern 2:
   A chord diagramA augmentedA   A chord diagramBB   A chord diagramE MajorE                      A chord diagramA augmentedA    A chord diagramBsus4Bsus4 A chord diagramE MajorE
e|-5------------------------------5-------------------------------------------|
b|-5---4---9-----9--9---9-9-9--9--5-----5----9----9--9---9--9--9--9-----------|
g|-2---4---9-----9--9---9-9-9--9--2-----4----9----9--9---9--9--9--9-----------|
A chord diagramD MajorD|-2---4---9-----9--9---9-9-9--9--2-----4----9----9--9---9--9--9--9-----------|
A chord diagramA augmentedA|-0---2---7-----7--7---7-7-7--7--0-----2----7----7--7---7--7--7--7-----------|
A chord diagramE MajorE|---------0-----0--0---0-0-0--0-------------0----0--0---0--0--0--0-----------|

Pattern 3: E5-Rock-Feel...

e|-------------------------------------------------------------------|
b|-------------------------------------------------------------------|
g|-4-----4-----4-----6-----4-------4-----4-----4-----6-----4---------|
A chord diagramD MajorD|-2-2-2-2-2-2-2-2-2-2-2-2-2-2-2-2-2-2-2-2-2-2-2-2-2-2-2-2-2-2-2-2---|
A chord diagramA augmentedA|-------------------------------------------------------------------|
A chord diagramE MajorE|-------------------------------------------------------------------|

Heat-seek-er,...

e|----------------------------------------------------------------------------|
b|----------------------------------------------------------------------------|
g|---4-----4----4--4-----4--4--4--4--4-----5--7-----7---7--4--5--7--7--7--4--5|
A chord diagramD MajorD|---2--4--4----4--2--4--4--4--4--4--2--4--5--7-----7---7--4--5--7--7--7--4--5|
A chord diagramA augmentedA|-2---------2-----------2-----------------3--5-----5---5--2--3--5--5--5--2--3|
A chord diagramE MajorE|----------------------------------------------------------------------------|
                                      ...down,
e|-------------------------------------------|
b|-------------------------------------------|
g|-7---4--5--7---4--5--7---4--2-----2--2--4--|
A chord diagramD MajorD|-7---4--5--7---4--5--7---4--2-----2--2--4--|
A chord diagramA augmentedA|-5---2--3--5---2--3--5---2--0-----0--0--2--|
A chord diagramE MajorE|-------------------------------------------|

Solo:     ph                            b     b ph
e|----------------------------------------------------------------------------|
b|---------------------0-2--3----2--0-2--3--2--<3>------0--2--3----0--2--3--0-|
g|-------<4>------------------------------------------------------------------|
A chord diagramD MajorD|----------------------------------------------------------------------------|
A chord diagramA augmentedA|-2--2--------2---2----------------------------------------------------------|
A chord diagramE MajorE|----------------------------------------------------------------------------|
                                                                ph      b
e|----------------------------------------------------------------------------|
b|---3--0----3--0-----------------------------------------------------10-12---|
g|2--------2-------2-----------------------------4------4------<4>------------|
A chord diagramD MajorD|--------------------4--2--0--4--2--0--4--2--0-------------------------------|
A chord diagramA augmentedA|----------------------------------------------------------------------------|
A chord diagramE MajorE|----------------------------------------------------------------------------|
                                                            ~~~~~~~      b
e|---------------7--10-7-9-7-9-7----7-----------------------------------------|
b|-----------19------------------10----10--7----7-----------------------9--10-|
g|-------------------------------------------10---9-7----------------7--9--10-|
A chord diagramD MajorD|-----------------------------------------------------9---9------------------|
A chord diagramA augmentedA|----------------------------------------------------------------------------|
A chord diagramE MajorE|----------------------------------------------------------------------------|
  r    b      b                                                  b   r   b   r
e|----------------------------------------------------------------------------|
b|-9-9--10--9--10--------------------------------------12--10---9--10--9--10--|
g|-9-9--10--9--10--7-----------------------------------13--11---9--10--9--10--|
A chord diagramD MajorD|-----------------------9-------7-7-7-7-7--9-4-0--0--------------------------|
A chord diagramA augmentedA|---------------------------9------------------------------------------------|
A chord diagramE MajorE|----------------------------------------------------------------------------|
           b    r          b      b             b          b      b      b
e|---------------------------------------12----------17------------17-----17--|
b|9---7--9---10--9--7--9--9--10--9--10--------17-19-----17--19--17-19--17-19--|
g|9---7--9---10--9--7--9--9--10--9--10----------------------------------------|
A chord diagramD MajorD|----------------------------------------------------------------------------|
A chord diagramA augmentedA|----------------------------------------------------------------------------|
A chord diagramE MajorE|----------------------------------------------------------------------------|
                      b      b      b      b
e|-17--17--17--17------17-----17-----17-----17-------|
b|-19--19--19--19---17-19--17-19--17-19--17-19-------|
g|----------------------------------------------------|
A chord diagramD MajorD|----------------------------------------------------|
A chord diagramA augmentedA|----------------------------------------------------|
A chord diagramE MajorE|----------------------------------------------------|
    w/patt1                               ub     ub     ub     ub      b ~~~~~~
e|------------------------|-----------|-----7------7------7-------7--17-19----|
b|------------------------|-----------|-10-12--10-12--10-12---10-12-----------|
g|----4----4-----4--4--4--|-----------|---------------------------------------|
A chord diagramD MajorD|----2--4-4-----4--2--4--|-----------|---------------------------------------|
A chord diagramA augmentedA|-2----------2--------2--|-----------|---------------------------------------|
A chord diagramE MajorE|------------------------|-----------|---------------------------------------|


ending Solo-...
     ub      ub          ub       ub           ub    ~~~~~~~ ~~~~~~  ~~~~~~
e|----19------19----------19-------19-----------19----------------------------|
b|-22-24---22-24---22--22-24----22-24----22--22-24----------------------------|
g|---------------------------------------------------4-------2----------------|
A chord diagramD MajorD|------------------------------------------------------------------4---------|
A chord diagramA augmentedA|----------------------------------------------------------------------------|
A chord diagramE MajorE|----------------------------------------------------------------------------|
     b      ~~~~~~~~~~~~~~~~~~~~~
e|-----------------------------------|
b|-----------------------------------|
g|-----------------------------------|
A chord diagramD MajorD|-----------------------------------|
A chord diagramA augmentedA|-5--6-----2------------------------|
A chord diagramE MajorE|-----------------------------------|

Other versions of Heatseeker

Heatseeker introTabs

Almost there ...

Sign in to get your own page with links to favourite songs and more. You are just one click away...

Login with Facebook Login with Google