Log in

One click and you are in

Login with Facebook Login with Google

Why sign up and log in

Guitar Tabs Explorer
AC/DC tabs for Gimme a bullet

Guitar tabs

Gimme A chord diagramA augmentedA Bullet
A. Young M. Young & B. Scott
Album: Powerage


Intro:
A chord diagramE MajorE|-----------------------|-----------------------|
A chord diagramBB|-----------------------|-----------------------|
A chord diagramG+G|---------------2----0--|---------------2----0--|
A chord diagramD MajorD|--2----2-------2----0--|--2----2-------2----0--|
A chord diagramA augmentedA|--0----0----3b---------|--0----0----3b---------|
A chord diagramE MajorE|-----------------------|-----------------------|
                        2nd Guitar:
|-----------------------|-----------------------|
|-----------------------|-------------3----3----|
|---------------2----0--|--2----------0----0----|
|--2----2-------2----0--|--2----------4----5----|
|--0----0----3b---------|--0--------------------|
|-----------------------|-----------------------|

|-----------------------|-----------------------|
|---------------3----3--|---------------3-------|
|---------------0----0--|---------------0----2--|
|---------------4----5--|---------------4----2--|
|-----------------------|--------------------0--|
|-----------------------|-----------------------|

|-----------------------|-----------------------|
|-----------------------|---------------3----3--|
|-----------------------|--2------------0----0--|
|-----------------------|--2------------4----5--|
|-----------------------|--0--------------------|
|-----------------------|-----------------------|

|-----------------------|-----------------------|
|---------------3----3--|---------------3-------|
|---------------0----0--|---------------0----2--|
|---------------4----5--|---------------4----2--|
|-----------------------|--------------------0--|
|-----------------------|-----------------------|
                        Verse:
|-----------------------|--------------------3--|
|-----------------------|---------------3----3--|
|-----------------------|--2------------2----0--|
|-----------------------|--2------------0-------|
|-----------------------|--0--------------------|
|-----------------------|-----------------------|

|--------------------3--|-----------------------|
|---------------3----3--|---------------3-------|
|---------------2----0--|---------------2----2--|
|---------------0-------|---------------0----2--|
|-----------------------|--------------------0--|
|-----------------------|-----------------------|

|-----------------------|--------------------3--|
|-----------------------|---------------3----3--|
|-----------------------|--2------------2----0--|
|-----------------------|--2------------0-------|
|-----------------------|--0--------------------|
|-----------------------|-----------------------|

|--------------------3--|-----------------------|
|---------------3----3--|---------------3-------|
|---------------2----0--|---------------2----2--|
|---------------0-------|---------------0----2--|
|-----------------------|--------------------0--|
|-----------------------|-----------------------|
                        Chorus:
|-----------------------|-----------------------|
|-----------------------|-----------------------|
|------2--------2--2----|--5----5-------5----7--|
|------2--------2--2----|--5----5-------5----7--|
|------0--------0--0--0-|--3----3-------3----5--|
|-----------------------|-----------------------|

|-----------------------|-----------------------|
|-----------------------|-----------------------|
|-------7------7--7-----|--5----5-------5----7--|
|-------7------7--7-----|--5----5-------5----7--|
|-------5------5--5--0--|--3----3-------3----5--|
|-----------------------|-----------------------|

|-----------------------|-----------------------|
|-----------------------|-----------------------|
|--7--7--------7--7-----|--5----5-------5----7--|
|--7--7--------5--5-----|--5----5-------5----7--|
|--5--5--------5--5--0--|--3----3-------3----5--|
|-----------------------|-----------------------|

|-----------------------|-----------------------|
|-----------------------|-----------------------|
|-------7------7--7-----|---------------------4-|
|-------7------7--7-----|--3----3----3--3--3--5-|
|-------5------5--5--0--|--3----3----3--3--3--5-|
|-----------------------|--1----1----1--1--1--3-|

|-----------------------|
|-----------------------|
|----4--4----4----4-----|
|----5--5----5----5-----|
|----5--5----5----5-----|
|----3--3----3----3-----|

By: Erikz R.

Other versions of Gimme A Bullet

Gimme a bulletChords

Almost there ...

Sign in to get your own page with links to favourite songs and more. You are just one click away...

Login with Facebook Login with Google