Log in

One click and you are in

Login with Facebook Login with Google

Why sign up and log in

Guitar Tabs Explorer
AC/DC tabs for Can i sit next to you girl

Guitar tabs

Intro (Guitar 1)

Eb-------------------------------------------------------------------------
Bb-------------------------------------------------------------------------
Gb-------------------------------------------------------------------------
Db-------------------------------------------------------------------------
Ab---7---7-x-7-x-7-x-7-x-7-x-7-x-7-x-7-x-7-x-7-x-7-x-7-x-7-x-7-x-7---------
Eb---5---5-x-5-x-5-x-5-x-5-x-5-x-5-x-5-x-5-x-5-x-5-x-5-x-5-x-5-x-5---------

Eb-------------------------------------------------------------------------
Bb-------------------------------------------------------------------------
Gb-------------------------------------------------------------------------
Db-------------------------------------------------------------------------
Ab---9---9-x-9-x-9-x-9-x-9-x-9-x-9-x-9-x-9-x-9-x-9-x-9-x-9-x-9-x-9---------
Eb---7---7-x-7-x-7-x-7-x-7-x-7-x-7-x-7-x-7-x-7-x-7-x-7-x-7-x-7-x-7---------

Eb-------------------------------------------------------------------------
Bb-------------------------------------------------------------------------
Gb-------------------------------------------------------------------------
Db---5---5-x-5-x-5-x-5-x-5-x-5-x-5-x-5-x-5-x-5-x-5-x-5-x-5-x-5-x-5---------
Ab---3---3-x-3-x-3-x-3-x-3-x-3-x-3-x-3-x-3-x-3-x-3-x-3-x-3-x-3-x-3---------
Eb-------------------------------------------------------------------------

Eb-------------------------------------------------------------------------
Bb-------------------------------------------------------------------------
Gb-------------------------------------------------------------------------
Db---7---7-x-7-x-7-x-7-x-7-x-7-x-7-x----9------9------9------9-------------
Ab---5---5-x-5-x-5-x-5-x-5-x-5-x-5-x----7------7------7------7-------------
Eb-----------------------------------0-----0------0------0-----------------

Eb-------------------------------------------------------------------------
Bb-------------------------------------------------------------------------
Gb-------------------------------------------------------------------------
Db-------9------9------9------9--------------------------------------------
Ab-------7------7------7------7--------------------------------------------
Eb---0------0------0------0------------------------------------------------


Eb-------------------------------------------------------------------------
Bb-------------------------------------------------------------------------
Gb-------------------------------------------------------------------------
Db---7-7-9-x-7-7-9-x-7-7-9-x-7-7-9-x-7-7-9-x-7-7-9-x-7-7-9-x-7-7-9---------
Ab---5-5-5-x-5-5-7-x-5-5-5-x-5-5-7-x-5-5-5-x-5-5-7-x-5-5-5-x-5-5-7---------
Eb-------------------------------------------------------------------------

Eb-------------------------------------------------------------------------
Bb-------------------------------------------------------------------------
Gb-------------------------------------------------------------------------
Db---------------------------------x-7-7-9-x-7-7-9-x-7-7-9-x-7-7-9---------
Ab---5-5-7-x-5-5-7-x-5-5-7-x-5-5-7-x-5-5-5-x-5-5-7-x-5-5-5-x-5-5-7---------
Eb---3-3-3-x-3-3-3-x-3-3-3-x-3-3-3-----------------------------------------

Eb-------------------------------------------------------------------------
Bb-------------------------------------------------------------------------
Gb-------------------------------------------------------------------------
Db---------------------------------x-7-7-9-x-7-7-9-x-7-7-9-x-7-7-9---------
Ab---7-7-9-x-7-7-9-x-7-7-9-x-7-7-9-x-5-5-5-x-5-5-7-x-5-5-5-x-5-5-7---------
Eb---5-5-5-x-5-5-5-x-5-5-5-x-5-5-5-----------------------------------------



Intro (Guitar 2)

Eb-------------------------------------------------------------------------
Bb---------15-15-15--------15-15-15--------15-15-15--------15-15-15--------
Gb---------14-14-14--------14-14-14--------14-14-14--------14-14-14--------
Db---15H16-----------15H16-----------15H16-----------15H16-----------------
Ab-------------------------------------------------------------------------
Eb-------------------------------------------------------------------------

Eb-------------------------------------------------------------------------
Bb---18P15-15-15-15--18P15-15-15-15--------15-15-15--------15-15-15--------
Gb---14----14-14-14--14----14-14-14--------14-14-14--------14-14-14--------
Db-----------------------------------15H16-----------15H16-----------------
Ab-------------------------------------------------------------------------
Eb-------------------------------------------------------------------------

    1  +  a  2  +  a  3  +  a  4  +  a  1  +  a  2  +  a  3  +  a  4  +  a
Eb-------------------------------------------------------------------------
Bb--15-15-15-15-15-15-15-15-15-15-15-15-15-15-15-15-15-15-15-15-15-15-15-15
Gb--14-14-14-14-14-14-14-14-14-14-14-14-14-14-14-14-14-14-14-14-14-14-14-14
Db-------------------------------------------------------------------------
Ab-------------------------------------------------------------------------
Eb-------------------------------------------------------------------------

    1  +  a  2  +  a  3  +  a  4  +  a  1  +  a  2  +  a  3  +  a  4  +  a
Eb-------------------------------------------------------------------------
Bb--18-15-15-15-15-15-18-15-15-15-15-15-18-15-15-18-15-15-18-15-15-18-15-15
Gb--14-14-14-14-14-14-14-14-14-14-14-14-14-14-14-14-14-14-14-14-14-14-14-14
Db-------------------------------------------------------------------------
Ab-------------------------------------------------------------------------
Eb-------------------------------------------------------------------------



Verse (One or Both Guitars Play together)

Eb-------------------------------------------------------------------------
Bb-------------------------------------------------------------------------
Gb-------------------------------------------------------------------------
Db---7-7-9-x-7-7-9-x-7-7-9-x-7-7-9-x---------------------------------------
Ab---5-5-5-x-5-5-7-x-5-5-5-x-5-5-7-x-----------2-3-3-3-3-2-----------------
Eb-----------------------------------3-3-3-3-5-------------5---------------

Eb-------------------------------------------------------------------------
Bb-------------------------------------------------------------------------
Gb-------------------------------------------------------------------------
Db-------------------------------------------------------------------------
Ab-------------2-3-3-3-3-2-------------------------------------------------
Eb---3-3-3-3-5-------------5-----------------------------------------------

Eb-------------------------------------------------------------------------
Bb-------------------------------------------------------------------------
Gb-------------------------------------------------------------------------
Db---7-7-9-x-7-7-9-x-7-7-9-x-7-7-9-x-----------------------2-3-3-3-3-------
Ab---5-5-5-x-5-5-7-x-5-5-5-x-5-5-7-x-----------2-3-3-3-3-5-----------------
Eb-----------------------------------3-3-3-3-5-----------------------------

Eb-------------------------------------------------------------------------
Bb-------------------------------------------------------------------------
Gb-------------------------------------------------------------------------
Db-------------------------------------------------------------------------
Ab---3-2-1-1-1-1-3-5-------------------------------------------------------
Eb-------------------------------------------------------------------------

Eb-------------------------------------------------------------------------
Bb-------------------------------------------------------------------------
Gb-------------------------------------------------------------------------
Db---8-8-10-x-8-8-10-x-8-8-10-x-8-8-9--------------------------------------
Ab---6-6-6--x-6-6-6--x-6-6-6--x-6-6-7--------------------------------------
Eb-------------------------------------------------------------------------

Eb-------------------------------------------------------------------------
Bb-------------------------------------------------------------------------
Gb-------------------------------------------------------------------------
Db---10-10-12-x-10-10-12-x-10-10-12-x-10-10-9------------------------------
Ab---8--8--8--x-8--8--8--x-8--8--8--x-8--8--7------------------------------
Eb-------------------------------------------------------------------------

Eb-------------------------------------------------------------------------
Bb-------------------------------------------------------------------------
Gb-------------------------------------------------------------------------
Db---8-8-10-x-8-8-10-x-8-8-10-x-8-8-10-x-8-8-10-x-8-8-10-------------------
Ab---6-6-6--x-6-6-6--x-6-6-6--x-6-6-6--x-6-6-6--x-6-6-6--------------------
Eb-------------------------------------------------------------------------

Eb-------------------------------------------------------------------------
Bb-------------------------------------------------------------------------
Gb-------------------------------------------------------------------------
Db---5-3-------------------------------------------------------------------
Ab-------5-3-1-------------------------------------------------------------
Eb-------------3-1-3-------------------------------------------------------


Chorus

"Can i sit next to you girl" x 2
Eb-------------------------------------------------------------------------
Bb-------------------------------------------------------------------------
Gb-----------------B-R-E-A-K-----------------------------------------------
Db-------------------------------------------------------------------------
Ab-------------------------------------------------------------------------
Eb-------------------------------------------------------------------------

Then on the third
Eb-------------------------------------------------------------------------
Bb-------------------------------------------------------------------------
Gb-------------------------------------------------------------------------
Db---4--------------4------------------------------------------------------
Ab---2--------------2--------------2---------------2--2--2--2--------------
Eb---------------------------------0---------------0--0--0--0--------------



Solo Backing (Sorry folks i aint figuring out solo :P)

Eb-------------------------------------------------------------------------
Bb-------------------------------------------------------------------------
Gb-------------------------------------------------------------------------
Db---7-7-9-x-7-7-9-x-7-7-9-x-7-7-9-x---------------------------------------
Ab---5-5-5-x-5-5-7-x-5-5-5-x-5-5-7-x-----------2-3-3-3-3-2-----------------
Eb-----------------------------------3-3-3-3-5-------------5---------------

Eb-------------------------------------------------------------------------
Bb-------------------------------------------------------------------------
Gb-------------------------------------------------------------------------
Db-------------------------------------------------------------------------
Ab-------------2-3-3-3-3-2-------------------------------------------------
Eb---3-3-3-3-5-------------5-----------------------------------------------

Eb-------------------------------------------------------------------------
Bb-------------------------------------------------------------------------
Gb-------------------------------------------------------------------------
Db---7-7-9-x-7-7-9-x-7-7-9-x-7-7-9-x-----------------------2-3-3-3-3-------
Ab---5-5-5-x-5-5-7-x-5-5-5-x-5-5-7-x-----------2-3-3-3-3-5-----------------
Eb-----------------------------------3-3-3-3-5-----------------------------

Eb-------------------------------------------------------------------------
Bb-------------------------------------------------------------------------
Gb-------------------------------------------------------------------------
Db-------------------------------------------------------------------------
Ab---3-2-1-1-1-1-3-5-6-6-6-6----------------0-2-3-3-3-3-------------5-5-5-5
Eb---------------------------1-2-3-4-4-4-4--------------0-2-3-3-3-3-3-3-3-3


Last Chorus / Outro

"Can i Sit next you girl" x 4
Eb-------------------------------------------------------------------------
Bb-------------------------------------------------------------------------
Gb-----------------B-R-E-A-K-----------------------------------------------
Db-------------------------------------------------------------------------
Ab-------------------------------------------------------------------------
Eb-------------------------------------------------------------------------
     1 + a 2 + a 3 + a 4 + a
Eb-------------------------------------------------------------------------
Bb-------------------------------------------------------------------------
Gb-------------------------------------------------------------------------
Db---4-4-4-4-4-4-4-4-4-4-4-4----------------------------------------------- x 8
Ab---2-2-2-2-2-2-2-2-2-2-2-2-----------------------------------------------
Eb-------------------------------------------------------------------------

Eb-------------------------------------------------------------------------
Bb-------------------------------------------------------------------------
Gb-------------------------------------------------------------------------
Db---5-5-5-5-5-5-5-5-5-5-5-5----------------------------------------------- x 4
Ab---3-3-3-3-3-3-3-3-3-3-3-3-----------------------------------------------
Eb-------------------------------------------------------------------------

Eb-------------------------------------------------------------------------
Bb-------------------------------------------------------------------------
Gb-------------------------------------------------------------------------
Db---7-7-7-7-7-7-7-7-7-7-7-7----------------------------------------------- x 2
Ab---5-5-5-5-5-5-5-5-5-5-5-5-----------------------------------------------
Eb-------------------------------------------------------------------------

Eb-------------------------------------------------------------------------
Bb-------------------------------------------------------------------------
Gb-------------------------------------------------------------------------
Db-----9----9----9--7-6---------------------------------------------------- x 8
Ab-----7----7----7--5-4----------------------------------------------------
Eb---0----0----0-----------------------------------------------------------

Eb-------------------------------------------------------------------------
Bb-------------------------------------------------------------------------
Gb-------------------------------------------------------------------------
Db------------Wait-for-drums---2-------------------------------------------
Ab--2--------------------------2-------------------------------------------
Eb--0--------------------------0-------------------------------------------

Thank you Ac/Dc :D

Almost there ...

Sign in to get your own page with links to favourite songs and more. You are just one click away...

Login with Facebook Login with Google