Log in

One click and you are in

Login with Facebook Login with Google

Why sign up and log in

Guitar Tabs Explorer
AC/DC guitar tabs for Back in black (Ver. 4)

Guitar tabs

Tuning: Standard tuning


  Verse  4x
e:-------2--2--2-------------3-0-----------------------2--2--2---------------|
B:-------3--3--3------------------3--0-----------------3--3--3---------------|
G:-------2--2--2----2--2--2-------------b(2)-0---------2--2--2-----2--2--2---|
D:2------0--0--0----2--2--2-----------------------2----0--0--0-----2--2--2---|
A:2-----------------0--0--0-----------------------2----------------0--0--0---|
E:0-----------------------------------------------0--------------------------|

                                Bridge
e:-------------------------------------------------------------------2-------|
B:----------------------------------------------------------------3--3-------|
G:------------------------------2-----4--2--4----2-----4--2--4----0--2--2----|
D:------------------------------2--2--4--2--4----2--2--4--2--4----0--0--2----|
A:-2-----2-----2-----2----------0--2--2--0--2----0--2--2--0--2----0-----0----|
E:----4-----5-----6-----7----------0----------------0-------------3--------3b|


                                                                   Well I'm b
e:------------2--------------------------------------------------------------|
B:---------3--3----------------------------------------------------3---------|
G:-----2---0--2--2--------2---2-----4--2--4----2-----2--4--2--4----0---------|
D:-----2---0--0--2--------2---2--2--4--2--4----2--2--2--4--2--4----0---------|
A:-----0---0-----0--------0---0--2--2--0--2----0--2--0--2--0--2----0--strum-5|
E:(4)------3--------3b(4)--------0----------------0----------------3---------|



  ack in black                         repeat verse 2x then bridge       Ryth
e:---------------2--2--2-----------------------------------------------------|
B:---------------3--3--3-----------------------------------------------------|
G:---------------2--2--2-----------------------------------------------------|
D:---------------0--0--0--------------------------------------------------2--|
A:--or-6---times----------------------------------------------------------2--|
E:------------------------------------------------------------------------0--|


  em 1 solo 4 times then bridge again
e:---------------------------------------------------------------------------|
B:---------------------------------------------------------------------------|
G:-7--7--7---6--6--6--------------------------------7--7--7--6--6--6-----2---|
D:-7--7--7---6--6--6---2--2--2---2--2--2---2--2--2--7--7--7--6--6--6--2--2--2|
A:-5--5--5---4--4--4---2--2--2---2--2--2---2--2--2--5--5--5--4--4--4--2--0--2|
E:---------------------0--0--0---0--0--0---0--0--0--------------------0-----0|


          riff a 4x                                    riff b 2x  repeat riff
e:---------------------------------------------------------------------------|
B:---------------------------------------------------------------------------|
G:--2---------------------------------------------------0--5--4--2--4-----2--|
D:--2------------------------------------------------------------------3-----|
A:--0------0--5--4--2--4-----2-----2-----2-----2-----------------------------|
E:------------------------3-----4-----5-----6-----7--------------------------|


   a 2x then bridge again         Then play rythem for the solo again
e:-------------------------------------------------------------------|
B:-------------------------------------------------------------------|
G:---2-----2-----2---------------------------------------------------|
D:4-----5-----6-----7------------------------------------------------|
A:-------------------------------------------------------------------|
E:-------------------------------------------------------------------|

Other versions of Back In Black

Back in BlackChords
Back in Black (Ver. 2)Chords
Back in Black (Ver. 3)Chords
Back in Black AcousticChords
Back in BlackTabs
Back in Black (Ver. 2)Tabs
Back in Black (Ver. 3)Tabs
Back in Black (Ver. 5)Tabs
Back in Black - IntroTabs
Back in Black - SoloTabs

Almost there ...

Sign in to get your own page with links to favourite songs and more. You are just one click away...

Login with Facebook Login with Google