Log in

One click and you are in

Login with Facebook Login with Google

Why sign up and log in

Guitar Tabs Explorer
AC/DC bass tabs for Back in black (Ver. 2)

Bass tabs with lyrics

Tuning: Standard


🏷Legend:
r = rest
* = staccato
/ = slide up
(vf) = volume fade
(vo) = volume out
s = 16th notes (appears above bar)

INTRO:
   (Rest x2)
G |-----------------|
D |-----------------|
A |-----------------|
E |-r---------------|
  1 & 2 & 3 & 4 &

(Repeat next staff x2):
     ss   ss             ss   ss   s s s s
G |-----------------|-----------------|-----------------|-----------------|
D |-----------------|-----------------|-----------------|-----------------|
A |-------555-r---44|-4-r-------------|-------555-r---44|-4-r-------------|
E |-0-r-------------|-----------------|-0-r-------------|-----74-75-76-77-|
  1 & 2 & 3 & 4 &  1 & 2 & 3 & 4 &  1 & 2 & 3 & 4 &  1 & 2 & 3 & 4 &


VERSE 1 (x2):
     ss   ss             ss   ss   s s s s
G |-----------------|-----------------|-----------------|-----------------|
D |-----------------|-----------------|-----------------|-----------------|
A |-------555-r---44|-4-r-------------|-------555-r---44|-4-r-------------|
E |-0-r-------------|-----------------|-0-r-------------|-----74-75-76-77-|
  1 & 2 & 3 & 4 &  1 & 2 & 3 & 4 &  1 & 2 & 3 & 4 &  1 & 2 & 3 & 4 &


CHORUS 1:

G |-----------------|-----------------|-----------------|-----------------|
D |-----------------|-----------------|-----------------|-----------------|
A |-----------------|-----------------|-----------------|-----------------|
E |-7-7-7-7-7--5--7-|-7-7-7-7-7--5--7-|-0-5-5-5-5--3--5-|-5-5-5-5-5--3--5-|
  1 & 2 & 3 & 4 &  1 & 2 & 3 & 4 &  1 & 2 & 3 & 4 &  1 & 2 & 3 & 4 &

                     ssss ssss ss
G |-----------------|-----------------|-----------------|-----------------|
D |-----------------|-----------------|-----------------|-----------------|
A |-----------------|-----------------|---------------34|-5--5--5---------|
E |(5)5--0--7--5--7-|-7-7-7-7-7--5--7-|-3-33333-33333---|-----------------|
  1 & 2 & 3 & 4 &  1 & 2 & 3 & 4 &  1 & 2 & 3 & 4 &  1 & 2 & 3 & 4 &


VERSE 2 (x2):
     ss   ss             ss   ss   s s s s
G |-----------------|-----------------|-----------------|-----------------|
D |-----------------|-----------------|-----------------|-----------------|
A |-------555-r---44|-4-r-------------|-------555-r---44|-4-r-------------|
E |-0-r-------------|-----------------|-0-r-------------|-----74-75-76-77-|
  1 & 2 & 3 & 4 &  1 & 2 & 3 & 4 &  1 & 2 & 3 & 4 &  1 & 2 & 3 & 4 &


CHORUS 2:

G |-----------------|-----------------|-----------------|-----------------|
D |-----------------|-----------------|-----------------|-----------------|
A |-----------------|-----------------|-----------------|-----------------|
E |-7-7-7-7-7--5--7-|-7-7-7-7-7--5--7-|-7-5-5-5-5--3--5-|-5-5-5-5-5--3--5-|
  1 & 2 & 3 & 4 &  1 & 2 & 3 & 4 &  1 & 2 & 3 & 4 &  1 & 2 & 3 & 4 &

                     ssss ssss ss
G |-----------------|-----------------|-----------------|------/7---------|
D |-----------------|-----------------|-----------------|---/7------------|
A |-----------------|-----------------|---------------34|-5---------------|
E |(5)5--0--7--5--7-|-7-7-7-7-7--5--7-|-3-33333-33333---|-----------------|
  1 & 2 & 3 & 4 &  1 & 2 & 3 & 4 &  1 & 2 & 3 & 4 &  1 & 2 & 3 & 4 &


GUITAR SOLO (Repeat 1st staff x4):

     ss   ss    ss ss ss
G |-----------------|-----------------
D |-----------------|-----------------
A |-------555-r---44|-4-r-------777*--
E |-0-r-------------|-------000*----00
  1 & 2 & 3 & 4 &  1 & 2 & 3 & 4 &

 ___________________________________ ___________________________________
/1,2,3               /4
|    ss   ss         |    ss   ss
|-----------------|-----------------|-----------------|-----------------|
|-----------------|-----------------|-----------------|-----------------|
|-------555-r---44|-4-r-------------|-------555-----44|-4---------------|
|-0-r-------------|-------0-5--0--5-|-0---------------|-------0-5--0--5-|
 1 & 2 & 3 & 4 &  1 & 2 & 3 & 4 &  1 & 2 & 3 & 4 &  1 & 2 & 3 & 4 &


CHORUS 3:

G |-----------------|-----------------|-----------------|-----------------|
D |-----------------|-----------------|-----------------|-----------------|
A |-----------------|-----------------|-----------------|-----------------|
E |(5)5--0--7-7-7-7-|-7-7-7-7-7--5--7-|-0-5-5-5-5--3--5-|-5-5-5-5-5--3--5-|
  1 & 2 & 3 & 4 &  1 & 2 & 3 & 4 &  1 & 2 & 3 & 4 &  1 & 2 & 3 & 4 &

                     ssss ssss ss
G |-----------------|-----------------|-----------------|------/7---------|
D |-----------------|-----------------|-----------------|---/7------------|
A |-----------------|-----------------|---------------34|-5---------------|
E |(5)5--0--7--5--7-|-7-7-7-7-7--5--7-|-3-33333-33333---|-----------------|
  1 & 2 & 3 & 4 &  1 & 2 & 3 & 4 &  1 & 2 & 3 & 4 &  1 & 2 & 3 & 4 &


BRIDGE:
               s s s  sssss s s s  sssss s s s
G |-----------------|-----------------|-----------------|-----------------|
D |-----------------|-----------------|-----------------|-----------------|
A |-----------------|-----------------|--54-4-----------|--54-4-----------|
E |-0-r-------------|-0-r----75-76-77-|-0--7-3-75-76-77-|-0--7-3-75-76-77-|
  1 & 2 & 3 & 4 &  1 & 2 & 3 & 4 &  1 & 2 & 3 & 4 &  1 & 2 & 3 & 4 &

  sssss s s s  sssss s s s  sssss s s s  sssss s s s
G |-----------------|-----------------|-----------------|-----------------|
D |--54-4-----------|--54-4-----------|-----------------|-----------------|
A |-0--7-3-75-76-77-|-0--7-3-75-76-77-|--54-4-----------|--54-4-----------|
E |-----------------|-----------------|-0--7-3-75-76-77-|-0--7-3-75-76-77-|
  1 & 2 & 3 & 4 &  1 & 2 & 3 & 4 &  1 & 2 & 3 & 4 &  1 & 2 & 3 & 4 &


CHORUS 4:

G |-----------------|-----------------|-----------------|-----------------|
D |-----------------|-----------------|-----------------|-----------------|
A |-----------------|-----------------|-----------------|-----------------|
E |-7-7-7-7-7--5--7-|-7-7-7-7-7--5--7-|-0-5-5-5-5--3--5-|-5-5-5-5-5--3--5-|
  1 & 2 & 3 & 4 &  1 & 2 & 3 & 4 &  1 & 2 & 3 & 4 &  1 & 2 & 3 & 4 &

                     ssss ssss ss
G |-----------------|-----------------|-----------------|------/7---------|
D |-----------------|-----------------|-----------------|---/7------------|
A |-----------------|-----------------|---------------34|-5---------------|
E |(5)5--0--7--5--7-|-7-7-7-7-7--5--7-|-3-33333-33333---|-----------------|
  1 & 2 & 3 & 4 &  1 & 2 & 3 & 4 &  1 & 2 & 3 & 4 &  1 & 2 & 3 & 4 &

G |-----------------|-----------------|
D |-----------------|-----------------|
A |-----------------|-----------------|
E |-5---------------|(5)------------r-|
  1 & 2 & 3 & 4 &  1 & 2 & 3 & 4 &


OUTRO (Repeat 1st staff x2):

     ss   ss    ss ss ss    ss   ss
G |-----------------|-----------------|-----------------|-----------------|
D |-----------------|-----------------|-----------------|-----------------|
A |-------555-r---44|-4-r-------777*--|-------555-r---44|-4-r-------------|
E |-0-r-------------|-------000*----00|-0-r-------------|-------0-5--0--5-|
  1 & 2 & 3 & 4 &  1 & 2 & 3 & 4 &  1 & 2 & 3 & 4 &  1 & 2 & 3 & 4 &

 (vf)
     ss   ss    ss ss ss    ss   ss
G |-----------------|-----------------|-----------------|-----------------|
D |-----------------|-----------------|-----------------|-----------------|
A |-------555-r---44|-4-r-------567*56|-7-r---555-r---44|-4-r-------------|
E |-0-r-------------|-------000*------|-----------------|-------0-5--0--5-|
  1 & 2 & 3 & 4 &  1 & 2 & 3 & 4 &  1 & 2 & 3 & 4 &  1 & 2 & 3 & 4 &

     ss   ss    ss ss ss    ss   ss        (vo)
G |-----------------|-----------------|-----------------|-----------------|
D |-----------------|-----------------|-----------------|-----------------|
A |-------555-r---44|-4-r-------777*--|-------555-r---44|-4-r-------------|
E |-0-r-------------|-------000*----00|-0-r-------------|-------0-5--0--5-|
  1 & 2 & 3 & 4 &  1 & 2 & 3 & 4 &  1 & 2 & 3 & 4 &  1 & 2 & 3 & 4 &

Other versions of Back In Black

Back in BlackBass tabs

Almost there ...

Sign in to get your own page with links to favourite songs and more. You are just one click away...

Login with Facebook Login with Google