Log in

One click and you are in

Login with Facebook Login with Google

Why sign up and log in

Guitar Tabs Explorer
AC/DC guitar tabs for Back in black (Ver. 2)

Guitar tabs with lyrics

KEY:
 T = play with thumb
 / = slide up
  = slide down
 ^ = bend 	^q = quarter tone	^h = half tone		^F = full tone
	if letter is above the fret #, note is bent THEN picked
 h = hammer
 p = pull-off
 g = grace note - written above note to be ’graced’
 ~ = vibrato
Oh, and X’s mean make that chopping noise that Angus Young makes in the song.
I shouldn’t really need to tab that part out...


Opening riff (played behind verses as well):
---------------------|-------3-0------------|
---------------------|-----------3-0--------|
------7-7-7----------|---------------2^F^p0-|
--2---7-7-7--7-7-7---|-X-X-X----------------|
--2---5-5-5--7-7-7---|-X-X-X----------------|
--0----------5-5-5---|-X-X-X----------------|


---------------------|----------------------|
---------------------|----------------------|
------7-7-7----------|----------------------|
--2---7-7-7--7-7-7---|----------------------|
--2---5-5-5--7-7-7---|--2---2---2---2-------|
--0----------5-5-5---|----4---5---6---7----|


The Chorus:
----------------|-----|--3-----------|------|--3--|-------|
----------------|-----|--3--3--------|------|--3--|-3-3-3-|
--2-----4--2--4-|--%--|--0--2--2---2-|--%---|--0--|-2-2-2-|
--2--2--4--2--4-|--%--|-----0--2---2-|--%---|--0--|-0-0-0-|
--0--2--2--0--2-|-----|--------0---0-|------|-----|-------|
-----0----------|-----|----------3---|------|--3--|-------|


That later riff:
(play each part a couple of times - listen to the tape!)
First half (4 times )
--------------------------------|
--------------------------------|
--------------------------------|
--------------------------------|
-----5-4-2--4------2---2---2----|
--0------------4~----5---6---7-|


Second half (2 times )
--------------------------------|
--------------------------------|
--------------------------------|
-----5-4-2--4------2---2---2----|
--0------------4~----5---6---7--|
--------------------------------|
--------------------------------|

Other versions of Back In Black

Back in BlackChords
Back in Black (Ver. 2)Chords
Back in Black (Ver. 3)Chords
Back in Black AcousticChords
Back in BlackTabs
Back in Black (Ver. 3)Tabs
Back in Black (Ver. 4)Tabs
Back in Black (Ver. 5)Tabs
Back in Black - IntroTabs
Back in Black - SoloTabs

Almost there ...

Sign in to get your own page with links to favourite songs and more. You are just one click away...

Login with Facebook Login with Google