Log in

One click and you are in

Login with Facebook Login with Google

Why sign up and log in

Guitar Tabs Explorer
ABC bass tabs for The look of love 1990 mix

Bass tabs

Tuning: Standard tuning


Tabbed by: bassm99
E-mail: alanmatthews1966@yahoo.co.uk
Tuning: E, A, D, G

"The Look Of Love 1990 Mix" from the single "The Look Of Love 1990 Mix" (1990)
Written by Fry/White/Singleton/Palmer

Bass Starts: 0:15

Repeated Bass Line: (0:15 - 2:38) (* End Note Only)

G|----------------------------------------------------------------------------|
D|---------5-7----------------------------------------------------------------|
A|----------------------------------------------------------------------------|
E|--0-3-5------5-------------0*-----------------------------------------------|

No Bass: (2:38 - 2:54)

Bass Starts: 2:54

G|----------------------------------------------------------------------------|
D|-------5-7------------------------------------------------------------------|
A|----------------------------------------------------------------------------|
E|--3-5------5----------------------------------------------------------------|

Repeated Bass Line: (2:56 - 4:32) (* End Note Only)

G|----------------------------------------------------------------------------|
D|---------5-7----------------------------------------------------------------|
A|----------------------------------------------------------------------------|
E|--0-3-5------5-------------0*-----------------------------------------------|

Bass Overdub: 0:31

G|--2-0-----------------------------------------------------------------------|
D|----------------------------------------------------------------------------|
A|----------------------------------------------------------------------------|
E|----------------------------------------------------------------------------|

Bass Overdub: 0:54/1:02/1:14

G|--2-0--2-2------------------------------------------------------------------|
D|----------------------------------------------------------------------------|
A|----------------------------------------------------------------------------|
E|----------------------------------------------------------------------------|

Bass Overdub: 1:42

G|--2-0-0---------------------------------------------------------------------|
D|----------------------------------------------------------------------------|
A|----------------------------------------------------------------------------|
E|----------------------------------------------------------------------------|

Bass Overdub: 1:53

G|--2-0--2-2------------------------------------------------------------------|
D|----------------------------------------------------------------------------|
A|----------------------------------------------------------------------------|
E|----------------------------------------------------------------------------|

Almost there ...

Sign in to get your own page with links to favourite songs and more. You are just one click away...

Login with Facebook Login with Google