Log in

One click and you are in

Login with Facebook Login with Google

Why sign up and log in

Guitar Tabs Explorer
ABBA bass tabs for Waterloo

Bass tabs

Waterloo BASS TAB
ABBA

While tabbing I realized you most likely need a five string to play this.
That being said, here it is drop D and on four strings. Big jumps. But fun jumps.
Also, not tabbed with exact timing so listen for precise note placement.
Intro
G|------------|------------|------------|-------------|
D|------------|------------|------------|-------------|
A|5-55-55-55-5|5-55-55-55-5|5-55-55-55-5|5-55-55-55-5-|
D|------------|------------|------------|-------------|

First Verse
G|----------------------|------------|------------|-------------|
D|----------------------|------------|------------|7-77-77-77-7-|
A|5--5-5--5-5--5-5--5-4h|5-55-55-55-5|4-44-42-22-2|-------------|
D|----------------------|------------|------------|-------------|
(stretched out to show hammer-on, not done all the time, but do-able)

G|------------|------------|------------|-------------|
D|------------|------------|------------|-------------|
A|5-55-55-55-5|5-55-55-55-5|4-44-42-22-2|0-00-00-00-0-|
D|------------|------------|------------|-------------|


Bridge
G|------------|------------|------------|------------|---------------|
D|------------|------------|------------|------------|5--3----2------|
A|2--2--2--2--|2--2--2--2-0|2--2--2--0--|------------|-----------5---|
D|------------|------------|------------|6--6--6--6--|---------------|


Chorus
G|------------|------------|------------|-----------------|
D|00-0--------|55-5--------|77-7--------|00-0-------------|
A|--2-2-------|--7-7-------|--9-90-2-3-4|--2-20--00-00-00-|
D|-----0-2-3-4|-----5-7-8-9|------------|-------(77-77-77)|

G|------------|------------|------------|------------|22-2---------|
D|00-0--------|55-5--------|77-7--------|00-0--------|--4-4--------|
A|--2-2-------|--7-7-------|--9-90-2-3-4|--2-2-------|-----0-2-3-4-|
D|-----0-2-3-4|-----5-7-8-9|------------|-----0-2-3-4|-------------|

Chorus Out
G|------------|------------|------------|-------------|
D|------------|------------|------------|-------------|
A|5-55-55-55-5|5-55-55-55-5|5-55-55-55-5|5-55-55-55-5-|
D|------------|------------|------------|-------------|


Verse repeat

Bridge repeat

Chorus repeat


Chorus Out
G|------------|------------|------------|------------|-------------------|
D|------------|------------|------------|------------|----------77-5-4---|
A|5-55-55-55-5|5-55-55-44-4|2--2--2--2--|2--2--2--0--|-----------------7-|
D|------------|------------|------------|------------|6--6--6--6---------|


Chorus/Ending
G|------------|------------|------------|-------------|
D|00-0--------|55-5--------|77-7--------|00-0---------|
A|--2-2-------|--7-7-------|--9-90-2-3-4|--2-2--------|
D|-----0-2-3-4|-----5-7-8-9|------------|------0-2-3-4|

G|22-2--------|------------|
D|--4-4-------|00-0--------|
A|-----0-2-3-4|--2-2-------| repeat these two bars and fade out
D|------------|-----0-2-3-4|

Other versions of Waterloo

Waterloo (Ver. 2)Bass tabs

Almost there ...

Sign in to get your own page with links to favourite songs and more. You are just one click away...

Login with Facebook Login with Google