Log in

One click and you are in

Login with Facebook Login with Google

Why sign up and log in

Guitar Tabs Explorer
ABBA bass tabs for The winner takes it all

Bass tabs

Intro
G|---------------------------------------------------------------|
D|---------------------------------------------6---------11------|
A|----9---------------------10----11-\---4-----------------------|
E|-----------10-----11-------------------------------------------|

Verse
G|---------------------------------------------------------------|
D|----4-------4--4----------------4-----4----4---------3----3---3|
A|---------------------4----6------------------------------------|
E|---------------------------------------------------------------|

G|---------------------------------------------------------------|
D|--------------3------3---3---3---------------------------------|
A|---4----6--------------------------6-----6----6------4---5---6-|
E|---------------------------------------------------------------|

G|---------------------------------------------------------------|
D|---------------------------------------------------------------|
A|--6----6----6----6--5---4-------4---4-------2--3---4-----4---4-|
E|---------------------------------------------------------------|

G|---------------------------------------------------------------|
D|--4----4----4----------------4-----4----4---------3-----3---3--|
A|------------------4----6---------------------------------------|
E|---------------------------------------------------------------|

G|---------------------------------------------------------------|
D|---------------3-----3---3-------------------------------------|
A|--4----6--------------------------6-----6-----6-------4--5--6--|
E|---------------------------------------------------------------|

G|---------------------13---\---10-------------------------------|
D|-------------------------------------13--\---10----------------|
A|---6---6----6-------------------------------------14-\---10----|
E|---------------------------------------------------------------|

G|---------------------------------------------------------------|
D|-----------------------6-----/---11---11---11----9---11--11-11-|
A|------------------4--------------------------------------------|
E|-----11---\--4-------------------------------------------------|

Chorus
G|---------------------------------------------------------------|
D|----4---------4---4------2--3--4-------------------------------|
A|--------4-------------------------------4-/--------5--5--5--5--|
E|---------------------------------------------------------------|

G|---------------------------------------------------------------|
D|-----------------------------------------5-------5-------------|
A|--6---------6---6-----4--5--6----------------6-----------------|
E|-------6-------------------------6-----------------------------|

G|---------------------------------------------------------------|
D|----6---6--------6---6-----4---5---6----------6----6-----------|
A|------------6----------------------------6---------------------|
E|---------------------------------------------------------------|

G|----3--4--6-----6---6----------6---------------6-------6-------|
D|---------------------------------------------------------------|
A|--------------------------4----------4----4---------4----------|
E|---------------------------------------------------------------|


G|---------------------------------------------------------------|
D|----4---------4---4------2--3--4-------------------------------|
A|--------4-------------------------------4-/--------5--5--5--5--|
E|---------------------------------------------------------------|

G|---------------------------------------------------------------|
D|-----------------------------------------5-------5-------------|
A|--6---------6---6-----4--5--6----------------6-----------------|
E|-------6-------------------------6-----------------------------|

G|----------------------------------------------3---4--6---------|
D|---6---6--------6--6------4--5--6-----6--6---------------6-----|
A|-----------6---------------------------------------------------|
E|---------------------------------------------------------------|

G|---------------------------------------------------------------|
D|--6---6----/----11--11---11----11---11---11---11---------------|
A|---------------------------------------------------------------|
E|---------------------------------------------------------------|

Verse
G|---------------------------------------------------------------|
D|--4----4--4------------4------4----4------4--3-----3---3-------|
A|---------------4---6-------------------------------------------|
E|---------------------------------------------------------------|

G|---------------------------------------------------------------|
D|----------------3------3---3--------3--------------------------|
A|----4----6-------------------------------6----6----6-----------|
E|---------------------------------------------------------------|

G|---------------------------------------------------------------|
D|------------------------------------------9--10---11-----------|
A|--4---5---6-----6---6-----4----4----4------------------9-\-----|
E|---------------------------------------------------------------|

G|---------------------------------------------------------------|
D|-------------9--10--11---\----4----4---4------------4----4---4-|
A|---4---/-------------------------------------4--6--------------|
E|---------------------------------------------------------------|

G|---------------------------------------------------------------|
D|--3---3--3-------------3----3--3----3--------------------------|
A|-------------4---6----------------------6---6---6------4--5--6-|
E|---------------------------------------------------------------|

G|---------------------------------------------------------------|
D|----------------------------------------6--/------11---11---11-|
A|--4----4---4------2---3---4----4---4---------------------------|
E|---------------------------------------------------------------|

G|---------------------------------------------------------------|
D|---9-11--11--11-\----------------------------------------------|
A|---------------------------------------------------------------|
E|---------------------------------------------------------------|

Chorus
G|---------------------------------------------------------------|
D|---4--------4---4-----2---3---4--------------------------------|
A|-------4---------------------------4-/-5--5--5--5----6---------|
E|---------------------------------------------------------6-----|

G|---------------------------------------------------------------|
D|-----------------------------5------5------6---6-------6---6---|
A|--6---6----4--5--6--6-----------6------------------6-----------|
E|------------------------6--------------------------------------|

G|----------------------------3---4----6-------------------------|
D|--4--5--6--6-------6---6---------------------------------------|
A|---------------6----------------------------4---4-------4------|
E|----------------------------------------------------4-------4--|

G|---------------------------------------------------------------|
D|-------6---/--11--11--11---11--11--11--------------------------|
A|---4-----------------------------------------------------------|
E|---------------------------------------------------------------|

G|---------------------------------------------------------------|
D|----4---------4---4------2--3--4-------------------------------|
A|--------4-------------------------------4-/--------5--5--5--5--|
E|---------------------------------------------------------------|

G|---------------------------------------------------------------|
D|-----------------------------------------5-------5-------------|
A|--6---------6---6-----4--5--6----------------6-----------------|
E|-------6-------------------------6-----------------------------|

G|---------------------------------------------------------------|
D|----6---6--------6---6-----4---5---6----------6----6-----------|
A|------------6----------------------------6---------------------|
E|---------------------------------------------------------------|
          (Hold 6) 	  Short verse
G|--3---4---6----------------------------/----11-----------------|
D|---------------------------------------------------------------|
A|---------------4---4----4----4---------/----9------------------|
E|---------------------------------------------------------------|
  «I don’t wanna talk”
G|---------------------------------------------------------------|
D|------------------16------15-----13----11---9---8--------------|
A|---------------------------------------------------------------|
E|---------------------------------------------------------------|

Chorus

G|---------------------------------------------------------------|
D|---4--------4---4-----2---3---4--------------------------------|
A|-------4---------------------------4-/-5--5--5--5----6---------|
E|---------------------------------------------------------6-----|

G|---------------------------------------------------------------|
D|-----------------------------5------5------6---6-------6---6---|
A|--6---6----4--5--6--6-----------6------------------6-----------|
E|------------------------6--------------------------------------|

G|---------------------------------------------------------------|
D|--4--5--6--6---------6-----------------------------------------|
A|---------------6---------6----4----6----4----------------------|
E|---------------------------------------------------------------|

G|---------------------------------------------------------------|
D|-------6---/--11--11--11---11--11--11--------------------------|
A|---------------------------------------------------------------|
E|---------------------------------------------------------------|
G|---------------------------------------------------------------|
D|---4--------4---4-----2---3---4--------------------------------|
A|-------4---------------------------4-/-5--5--5--5----6---------|
E|---------------------------------------------------------6-----|

G|---------------------------------------------------------------|
D|-----------------------------5------5------6---6-------6---6---|
A|--6---6----4--5--6--6-----------6------------------6-----------|
E|------------------------6--------------------------------------|


G|----------------------------------3---4---6--------------------|
D|--4---5--6---6---6------6---6----------------------------------|
A|--------------------6-----------------------------4---4--------|
E|-----------------------------------------------------------4----|

G|------------6-----------------6--------------------------------|
D|--4--- (6) ----------4--- (6) ---------------------------------|
A|-------------------------------------4--------------------------|
E|---------------------------------------------------------------|


G|---------------------------------------------------------------|
D|---4--------4---4-----2---3---4--------------------------------|
A|-------4---------------------------4-/-5--5--5--5----6---------|
E|---------------------------------------------------------6-----|

G|---------------------------------------------------------------|
D|-----------------------------5------5------6---6-------6---6---|
A|--6---6----4--5--6--6-----------6------------------6-----------|
E|------------------------6--------------------------------------|

G|-----------------------------3---4---6-------------------------|
D|--4--5--6---6-------6---6-----------------------------6-/------|
A|----------------6--------------------------------4-------------|
E|---------------------------------------------------------------|

G|---------------------------------------------------------------|
D|---11---11---11--11---11---15--16---\--------------------------|
A|---------------------------------------------------------------|
E|---------------------------------------------------------------|

Repeat chorus until end

Almost there ...

Sign in to get your own page with links to favourite songs and more. You are just one click away...

Login with Facebook Login with Google