Log in

One click and you are in

Login with Facebook Login with Google

Why sign up and log in

Guitar Tabs Explorer
ABBA bass tabs for Thats me

Bass tabs

Tuning: Standard (E A D G)

Key: F#

Difficulty: Intermediate

Album: Arrival
Year: 1976
Written by: Benny Andersson, Stig Anderson and Björn Ulvaeus
Bass: Rutger Gunnarsson

   Intro
   W          W          W          W          W
G||-------------------|-------------------|-------------------|-------------------|-------------------|
D||-------------------|-------------------|-------------------|-------------------|-------------------|
A||-------------------|-------------------|-------------------|-------------------|-------------------|
E||-------------------|-------------------|-------------------|-------------------|-------------------|
                         Verse
  W          W          H    E E E E   E E. S S S E Q  E
|-------------------|-------------------|-----------------------|--------------------------|
|-------------------|-------------------|-----------------------|--4--------4---4----------|
|-------------------|-------------------|-----------4-----4-----|---------4---4---------4--|
|-------------------|-------------------|-----------------------|--------------------------|


  E E. S S S E Q  E   E E. S S S E Q  E   E E. S S S E E Q
|--------------------------|--------------------------|---------------------------|
|--4--------4---4----------|--5--------5---5----------|--5--------5---5-----8\----|
|---------4---4---------4--|---------5---5---------5--|---------5---5-------------|
|--------------------------|--------------------------|---------------------------|


  E E. S S S E Q  E   E E. S S S E Q  E   E E. S S S E Q  E
|--------------------------|--------------------------|--------------------------|
|--------------------------|--------------------------|--6--------6---6----------|
|--6--------6---6----------|--6--------6---6----------|---------6---6---------6--|
|---------6---6---------6--|---------6---6---------6--|--------------------------|

  E E. S S S E Q  E   E E. S S S E Q  E   E E. S S S E Q  E
|--------------------------|--------------------------|--------------------------|
|--6--------6---6----------|--------------------------|--------------------------|
|---------6---6---------6--|--4--------4---4----------|--4--------4---4----------|
|--------------------------|---------4---4---------4--|---------4---4---------4--|


  E E. S S S E Q  E   E E. S S S E Q  E   E E. S S S E Q  E
|--------------------------|--------------------------|--------------------------|
|--------------------------|--------------------------|--------------------------|
|--2--------2---2----------|--2--------2---2----------|--3--------3---3----------|
|---------2---2---------2--|---------2---2---------2--|---------3---3---------3--|


  E E. S S S E Q  E   E E. S S S E Q  E   E E. S S S H
|--------------------------|--------------------------|------------------------|
|--------------------------|--------------------------|------------------------|
|--4--------4---4----------|--5--------5---5----------|--6--------6---6--------|
|---------4---4---------4--|---------5---5---------5--|---------6---6----------|


                                      Interlude
  E E E E E E E E   E E.  H    E.   E H.      E   W
|--------------------------|-----------------------|---------------------|-------------------|
|--------------------------|-----------------------|--4------------------|-------------------|
|--------1--1--2--2--3--3--|--4------/4------------|---------------------|-------------------|
|--4--4--------------------|-----------------------|---------------------|-------------------|


                     Verse
  W          H.      E   E E. S S S E Q  E   E E. S S S E Q  E
|-------------------|------------------|--------------------------|--------------------------|
|-------------------|------------------|--4--------4---4----------|--4--------4---4----------|
|-------------------|------------------|---------4---4---------4--|---------4---4---------4--|
|-------------------|------------------|--------------------------|--------------------------|


  E E. S S S E Q  E   E E. S S S E E Q    E E. S S S E Q  E
|--------------------------|---------------------------|--------------------------|
|--5--------5---5----------|--5--------5---5-----8\----|--------------------------|
|---------5---5---------5--|---------5---5-------------|--6--------6---6----------|
|--------------------------|---------------------------|---------6---6---------6--|


  E E. S S S E Q  E   E E. S S S E Q  E   E E. S S S E Q  E
|--------------------------|--------------------------|--------------------------|
|--------------------------|--6--------6---6----------|--6--------6---6----------|
|--6--------6---6----------|---------6---6---------6--|---------6---6---------6--|
|---------6---6---------6--|--------------------------|--------------------------|


  E E. S S S E Q  E   E E. S S S E Q  E   E E. S S S E Q  E
|--------------------------|--------------------------|--------------------------|
|--------------------------|--------------------------|--------------------------|
|--4--------4---4----------|--4--------4---4----------|--2--------2---2----------|
|---------4---4---------4--|---------4---4---------4--|---------2---2---------2--|


  E E. S S S E Q  E   E E. S S S E Q  E   E E. S S S E Q  E
|--------------------------|--------------------------|--------------------------|
|--------------------------|--------------------------|--------------------------|
|--2--------2---2----------|--3--------3---3----------|--4--------4---4----------|
|---------2---2---------2--|---------3---3---------3--|---------4---4---------4--|


  E E. S S S E Q  E   E E. S S S Q  Q    E E E E E E E E   E E.  H    E.
|--------------------------|-------------------------|--------------------------|-----------------------|
|--------------------------|-------------------------|--------------------------|-----------------------|
|--5--------5---5----------|--6--------6---6----6----|--------1--1--2--2--3--3--|--4------/4------------|
|---------5---5---------5--|---------6---6-----------|--4--4--------------------|-----------------------|


 Bridge
  E E. S S S E Q  E   E E. S S S Q  E E   E E. S S S E Q  E
|--------------------------|--------------------------|--------------------------|
|--4--------4---4----------|--4--------4---4-------0--|--------------------------|
|---------4---4---------4--|---------4---4------4-----|--1--------1---1----------|
|--------------------------|--------------------------|---------1---1---------1--|


  E E. S S S E Q  E   E E. S S S E Q  E   E E. S S S  Q   E E
|--------------------------|--------------------------|-----------------------------|
|--------------------------|--------------------------|-----------------------------|
|--1--------1---1----------|--6--------6---6----------|--6--------6---/11\----------|
|---------1---1---------1--|---------6---6---------6--|---------6---6------------6--|


  E E. S S S E Q  E   E E. S S S H      E E E E. S E E E
|--------------------------|-----------8---8\--------|--------------------------|
|--6--------6---6----------|--6------8---8-----------|--------------------------|
|---------6---6---------6--|-------------------------|-----------4---4-4--4--4--|
|--------------------------|-------------------------|--4--6--7-----------------|


                                        Verse
  E E E E. S E E E   E E E E. S E E E   E E E Q.   Q    E E. S S S E Q  E
|--------------------------|--------------------------|-----------------------|--------------------------|
|--------------------------|--------------------------|-----------------------|--4--------4---4----------|
|-----------4---4-4--4--4--|-----------4---4-4--4--4--|-----------4------L----|---------4---4---------4--|
|--4--6--7-----------------|--4--6--7-----------------|--4--6--7--------------|--------------------------|


  E E. S S S E Q  E   E E. S S S E Q  E   E E. S S S E E Q
|--------------------------|--------------------------|--------------------------|
|--4--------4---4----------|--5--------5---5----------|--5--------5---5----------|
|---------4---4---------4--|---------5---5---------5--|---------5---5-------5----|
|--------------------------|--------------------------|--------------------------|


  E E. S S S E Q  E   E E. S S S E Q  E   E E. S S S E Q  E
|--------------------------|--------------------------|--------------------------|
|--------------------------|--------------------------|--6--------6---6----------|
|--6--------6---6----------|--6--------6---6----------|---------6---6---------6--|
|---------6---6---------6--|---------6---6---------6--|--------------------------|


  E E. S S S E Q  E   E E. S S S E Q  E   E E. S S S E Q  E
|--------------------------|--------------------------|--------------------------|
|--6--------6---6----------|--------------------------|--------------------------|
|---------6---6---------6--|--4--------4---4----------|--4--------4---4----------|
|--------------------------|---------4---4---------4--|---------4---4---------4--|


  E E. S S S E Q  E   E E. S S S E Q  E   E E E E E E E E   E E.  H    E.
|--------------------------|--------------------------|--------------------------|-----------------------|
|--------------------------|--------------------------|--------------------------|-----------------------|
|--2--------2---2----------|--3--------3---3----------|--------1--1--2--2--3--3--|--4------/4------------|
|---------2---2---------2--|---------3---3---------3--|--4--4--------------------|-----------------------|


  E E. S S S E Q  E   E E. S S S H      E E E E E E E E   E E.  H    E.
|--------------------------|------------------------|--------------------------|-----------------------|
|--------------------------|------------------------|--------------------------|-----------------------|
|--5--------5---5----------|--6--------6---6--------|--------1--1--2--2--3--3--|--4------/4------------|
|---------5---5---------5--|---------6---6----------|--4--4--------------------|-----------------------|


 Interlude
  E E. S S S E Q  E   E E. S S S E Q  E   E E. S S S E Q  E
|--------------------------|--------------------------|--------------------------|
|--4--------4---4----------|--4--------4---4----------|--5--------5---5----------|
|---------4---4---------4--|---------4---4---------4--|---------5---5---------5--|
|--------------------------|--------------------------|--------------------------|


  E E. S S S E E Q    E E. S S S E Q  E   E E. S S S E Q  E
|---------------------------|--------------------------|--------------------------|
|--5--------5---5-----8\----|--------------------------|--------------------------|
|---------5---5-------------|--6--------6---6----------|--6--------6---6----------|
|---------------------------|---------6---6---------6--|---------6---6---------6--|


                            Verse
  E E. S S S E Q  E   E E. S S S E Q  E   E E. S S S E Q  E
|--------------------------|--------------------------|--------------------------|
|--6--------6---6----------|--6--------6---6----------|--------------------------|
|---------6---6---------6--|---------6---6---------6--|--4--------4---4----------|
|--------------------------|--------------------------|---------4---4---------4--|


  E E. S S S E Q  E   E E. S S S E Q  E   E E. S S S E Q  E
|--------------------------|--------------------------|--------------------------|
|--------------------------|--------------------------|--------------------------|
|--4--------4---4----------|--2--------2---2----------|--2--------2---2----------|
|---------4---4---------4--|---------2---2---------2--|---------2---2---------2--|


  E E. S S S E Q  E   E E. S S S E E E E   E E. S S S E Q  E
|--------------------------|---------------------------|--------------------------|
|--------------------------|---------------------------|--------------------------|
|--3--------3---3----------|--4--------4---4--1--2--4--|--5--------5---5----------|
|---------3---3---------3--|---------4---4-------------|---------5---5---------5--|


                                        Outro
  E E. S S S Q  Q    E E E E E E E E   E E.  H    E.   E E. S S S E Q  E
|-------------------------|--------------------------|-----------------------|--------------------------|
|-------------------------|--------------------------|-----------------------|--4--------4---4----------|
|--6--------6---6----6----|--------1--1--2--2--3--3--|--4------/4------------|---------4---4---------4--|
|---------6---6-----------|--4--4--------------------|-----------------------|--------------------------|


  E E. S S S E Q  E   E E. S S S E Q  E   E E. S S S E E Q
|--------------------------|--------------------------|--------------------------|
|--4--------4---4----------|--5--------5---5----------|--5--------5---5----------|
|---------4---4---------4--|---------5---5---------5--|---------5---5-------5----|
|--------------------------|--------------------------|--------------------------|


  E E. S S S E Q  E   E E. S S S E Q  E   E E. S S S E Q  E
|--------------------------|--------------------------|--------------------------|
|--------------------------|--------------------------|--6--------6---6----------|
|--6--------6---6----------|--6--------6---6----------|---------6---6---------6--|
|---------6---6---------6--|---------6---6---------6--|--------------------------|


  E E. S S S E Q  E
|--------------------------||
|--6--------6---6----------||
|---------6---6---------6--||
|--------------------------||


Duration 🏷Legend
---------------
W - whole
H - half
Q - quarter
E - 8th
S - 16th
. - note dotted

Tablature 🏷Legend
----------------
/ - slide into from below or out of upwards
\ - slide into from above or out of downwards

Almost there ...

Sign in to get your own page with links to favourite songs and more. You are just one click away...

Login with Facebook Login with Google