Log in

One click and you are in

Login with Facebook Login with Google

Why sign up and log in

Guitar Tabs Explorer
ABBA tabs for Ring ring

Guitar tabs

Intro

e-----------------------------|
B-----------------------------|
G-----------------------------|
D------0-1-2---------0-1-2----|  (x2)
A--0-4--------0----4-------0--|
E-----------------------------|
Verse

e-------------------------------------------------------------|
B-------------------------------------------------------------|
G---------------------------------------2------4-2-------2----|
D------4-2---------4-2-------4-2----0-4----0-4------4--4---4--|
A--0-4--------0--4-------0-4----------------------------------|
E-------------------------------------------------------------|

e-----------------------------|
B-----------------------------|
G-----------------------------|
D------4-2-----2--------------|
A--0-4-----0-4----------------|
E-----------------------------|

e-------------------------------------------------------------|
B-------------------------------------------------------------|
G---------------------------------------2------4-2-------2----|
D------4-2---------4-2-------4-2----0-4----0-4------4--4---4--|
A--0-4--------0--4-------0-4----------------------------------|
E-------------------------------------------------------------|

e-----------------------------|
B-----------------------------|
G-----------------------------|
D------4-2-----2-4------------|
A--0-4-----0-4----------------|
E-------------------0---------|

Chorus

e--------------------------------------------------------------------|
B--------------------------------------------------------------------|
G--------------------------------------------------------------------|
D------0-1-2------0-1-2----------------------------------------------|
A--0-4--------0-4------------0-1-2------0-1-2------0-1-2------0-1-2--|
E------------------------0-4--------0-4--------0-4--------0-4--------|

e--------------------------------------------------------------------|
B--------------------------------------------------------------------|
G--------------------------------------------------------------------|
D------0-1-2------0-1-2------0-1-2-------0-1-2-----------------------|
A--0-4--------0-4--------0-4---------0-4------------0-1-2------0-1-2-|
E-----------------------------------------------0-4--------0-4-------|

e----------------------------------------------|
B----------------------------------------------|
G----------------------------------------------|
D----------------------------------------------|
A--2------5-4-5---2-----2----5-4-5---2---0-----|
E------------------------------------------4---|

e---------------------------------------------------------------------|
B---------------------------------------------------------------------|
G---------------------------------------------------------------------|
D-----------------------------0-1-2------0-1-2------------------------|
A------0-1-2------0-1-2---0-4--------0-4-------------0-1-2------0-1-2-|
E--0-4--------0-4--------------------------------0-4-------0-4--------|

e-----------------------------------------|
B-----------------------------------------|
G--4b6--2----2---2-----4b6--2----2---2--1-|
D----------4---4----4----------4---4------|
A-----------------------------------------|
E-----------------------------------------|

e-------------------------------------------------------------|
B-------------------------------------------------------------|
G---------------------------------------2------4-2-------2----|
D------4-2---------4-2-------4-2----0-4----0-4------4--4---4--|
A--0-4--------0--4-------0-4----------------------------------|
E-------------------------------------------------------------|

e-----------------------------|
B-----------------------------|
G-----------------------------|
D------4-2-----2--------------|
A--0-4-----0-4----------------|
E-----------------------------|

repeat verse and chorus

Easy

Other versions of Ring Ring

Ring ringChords
Ring ring (Ver. 2)Chords
Ring ring (Ver. 2)Tabs

Almost there ...

Sign in to get your own page with links to favourite songs and more. You are just one click away...

Login with Facebook Login with Google