Log in

One click and you are in

Login with Facebook Login with Google

Why sign up and log in

Guitar Tabs Explorer
ABBA bass tabs for Me and bobby and bobbys brother

Me And Bobby And Bobbys Brother bass tab by ABBA

ABBA bass tabs for Me and bobby and bobbys brother

Bass tabs

Tuning: Standard (E A D G)

Key: F

Difficulty: Novice

Album: Ring Ring
Year: 1973
Written by: Benny Andersson and Björn Ulvaeus
Bass: Rutger Gunnarsson

   INTRO
   Q   Q  Q    Q  Q  Q  Q    Q  E E E E E E   Q  Q  Q  Q
G||------------------|----------------------|-------------------------|-----------------------|
D||--------0----2----|--3-------------------|--3----------3-----2-----|--0--------------------|
A||--3---------------|------------3---------|----------3--------------|------------0----5S----|
E||------------------|----------------------|-------------------------|-----------------------|
  W          Q  Q  Q  E E   Q  Q  Q  Q    Q  Q  Q  E E
G|-------------------|-----------------------|----------------------|------------2-------2--|
D|-------------------|-----------------------|----------------------|--3--------------------|
A|--1----------------|------------0-------0--|--1---------3---------|-----------------------|
A|-------------------|--1--------------------|----------------------|-----------------------|


            VERSE
  H    Q  Q    H    Q  E E   H    Q  E E   H    Q  E E
G|--3--------5---------|----------------------|----------------------|----------------------|
D|---------------------|--3-------------3-----|--2-------------2-----|--0-------------------|
A|----------------3----|----------------------|----------------------|----------------3-----|
E|---------------------|----------------------|----------------------|----------------------|


  H    Q  Q    Q  Q  Q  Q    Q  Q  Q  Q    H    H
G|---------------------|----------------------|-----------------0----|--2-----------------|
D|---------------------|----------------------|----------------------|-----------2--------|
A|--1-------------1----|------------0---------|--3---------3---------|--------------------|
E|---------------------|--1-------------------|----------------------|--------------------|

  H    E E Q    H.      E E   H    E E Q    H    E E E E
G|----------------------|---------------------|----------------------|-----------------------|
D|-----------7----------|---------------------|----------------------|-----------------------|
A|--5-----------0--3----|--1------------L-----|--1--------L--3--1----|-----------3-----4-----|
E|----------------------|------------------1--|----------------------|--1--------------------|


            PRE-CHORUS
  H.      Q    Q     E E Q  E E   Q  E E E E Q    Q  Q  Q  E E
G|--------------------|------------------------------|------------------------|-----------------------|
D|--------------------|------------------------------|------------------------|-----------------------|
A|--5-----------------|-------------------5-------5--|-------------5-----5----|--3--------------------|
E|--------------------|--3-------------3-------------|--3-------3-----3-------|------------3-------3--|


               CHORUS
  E E E E E E E E   Q   Q  Q  Q    Q  E E Q  Q    Q  Q  Q  Q
G|--------------------------|------------------------|-----------------------|----------------------|
D|--------------0-----2-----|--3---------------------|--3----------3----5----|--7---------2---------|
A|--3-----3-----------------|--------------3---------|----------3------------|----------------------|
E|--------------------------|------------------------|-----------------------|----------------------|


  H    Q  Q    Q  Q  Q  E E   H    Q  Q    Q  E E Q  Q
G|--2------------------|-----------------------|---------------------|-----------------------|
D|---------------------|--0--------------------|--7-------------7----|-------------5---------|
A|-----------0----3----|------------0-------0--|-----------7---------|--5-------5------------|
E|---------------------|-----------------------|---------------------|------------------3----|


  E E E E E E E E   Q  Q  Q  Q    Q  E E E E E E   Q  Q  Q  Q
G|--------------------------|----------------------|-------------------------|-----------------------|
D|--------------0-----2-----|--3-------------------|--3----------3-----2-----|--0---------0----------|
A|--3-----3-----------------|------------3---------|----------3--------------|-----------------3S----|
E|--------------------------|----------------------|-------------------------|-----------------------|


  W          Q  Q  Q  E E   Q  Q  Q  Q    Q  E E Q  E E
G|-------------------|-----------------------|----------------------|-------------2-------2--|
D|-------------------|-----------------------|----------------------|--3-------3-------------|
A|--1----------------|------------0-------0--|--1---------3---------|------------------------|
E|-------------------|--1--------------------|----------------------|------------------------|


            VERSE
  H    Q  Q    H    Q  E E   H    Q  E E   H    Q  E E
G|--3--------5---------|----------------------|----------------------|----------------------|
D|---------------------|--3-------------3-----|--2-------------2-----|--0-------------------|
A|----------------3----|----------------------|----------------------|----------------3-----|
E|---------------------|----------------------|----------------------|----------------------|


  H    Q  E E   Q  Q  Q  Q    Q  Q  Q  Q    H    H
G|----------------------|----------------------|----------------------|--------------------|
D|----------------------|----------------------|-----------------5----|--7-----------------|
A|--1-------------1-----|------------0---------|--3---------3---------|-----------7--------|
E|----------------------|--1-------------------|----------------------|--------------------|


  Q.   Q.   Q    H    E E E E   H    E E Q    H    Q  Q
G|---------------------|-----------------------|----------------------|---------------------|
D|---------7------0----|-----------------------|----------------------|---------------------|
A|--5------------------|--1--------L-----1-----|--1-----------1--3----|----------------3----|
E|---------------------|--------------1-----1--|----------------------|--1------------------|


           PRE-CHORUS
  W          Q     Q  Q  E E   Q  E E E E Q    Q  E E H
G|-------------------|-----------------------------|------------------------|----------------------|
D|-------------------|-----------------------------|------------------------|-------------5--------|
A|--5----------------|------------------5----------|-------------5-----5----|--3-------3-----------|
E|-------------------|--3-----------------------3--|--3-------3-----3-------|----------------------|


              CHORUS
   Q  Q  Q  Q    Q   Q  Q  Q    Q  E E Q  E E   Q  Q  Q  Q
G|--3g5-------------------|------------------------|------------------------|----------------------|
D|--------------0----2----|--3---------------------|--3----------3----5-----|--7---------2---------|
A|---------3--------------|--------------3---------|----------3-------------|----------------------|
E|------------------------|------------------------|------------------------|----------------------|


  H    E E E E   Q  Q  Q  Q    Q  Q  Q  Q    Q  Q  Q  Q
G|--2--------------------|----------------------|----------------------|----------------------|
D|-----------------------|--0-------------------|--7---------2---------|------------5---------|
A|-----------0-----3-----|------------0---------|----------------------|--5-------------------|
E|-----------------------|----------------------|----------------------|-----------------3----|


  E E E E E E E E   Q  Q  Q  Q    Q  E E E E E E   Q  Q  Q  Q
G|--------------------------|----------------------|-------------------------|-----------------------|
D|--------------0-----2-----|--3-------------------|--3----------3-----2-----|--0--------------------|
A|--3-----3-----------------|------------3---------|----------3--------------|------------0----5S----|
E|--------------------------|----------------------|-------------------------|-----------------------|


  W          Q  Q  Q  Q    Q  Q  Q  Q    Q  Q  Q  Q    Q  H.
G|-------------------|----------------------|----------------------|------------2---------|--3----5-------|
D|-------------------|----------------------|----------------------|--3-------------------|---------------|
A|--1----------------|------------0---------|--1---------3---------|----------------------|---------------|
E|-------------------|--1-------------------|----------------------|----------------------|---------------|


  Q  Q  Q  Q    Q  E E E E E E   H    Q  Q    W
G|----------------------|-------------------------|-----------2---------|-------------------|
D|--3-------------------|--3----------3-----2-----|--0-------------0----|-------------------|
A|------------3---------|----------3--------------|---------------------|--1----------------|
E|----------------------|-------------------------|---------------------|-------------------|


 OUTRO
  Q   Q  Q  Q    Q  Q  Q  Q    Q  Q  H      H    Q  Q
G|-----------------------|----------------------|------------2--------|--3--------5---------|
D|-----------------------|----------------------|--3------------------|---------------------|
A|-------------0---------|--1---------3---------|---------------------|----------------3----|
E|--1--------------------|----------------------|---------------------|---------------------|


   Q  E E Q  E E   Q  Q  Q  E E   Q  E E Q  Q    H    Q  Q
G|-------------------------|-----------------------|-------------2---------|--3--------5----------|
D|*------------------------|--------------------2--|--3-------3------------|---------------------*|
A|*-------------0-------0--|--1---------3----------|-----------------------|----------------3----*|
E|---1-------1-------------|-----------------------|-----------------------|----------------------|



Duration 🏷Legend
---------------
W - whole
H - half
Q - quarter
E - 8th
S - 16th
. - note dotted

Tablature 🏷Legend
----------------
L - tied note
g - grace note
S - shift slide (pick both notes)

|---------|
|*-------*| means repeat section
|*-------*|
|---------|

Almost there ...

Sign in to get your own page with links to favourite songs and more. You are just one click away...

Login with Facebook Login with Google