Log in

One click and you are in

Login with Facebook Login with Google

Why sign up and log in

Guitar Tabs Explorer
ABBA bass tabs for Lay all your love on me

Bass tabs

Intro/Chorus:
G|----------------|-----------------|-----------------|-----------------|
D|----------------|-----------------|-----------------|-----------------|
A|5-5-5-5-5-5-5-5-|-5-5-5-5-5-5-5---|-----------------|-----------3-4-5-|
E|----------------|---------------8-|-6-6-6-6-6-6-6-8-|-5-5-5-5-5-------|
G|----------------|-----------------|-----------------|-----------------|
D|----------7---9-|-----------------|-----------------|-----------------|
A|5-5-5-5-5---7---|-----------------|-----------------|-----------------|
E|----------------|-6-6-6-6-8-8-8-8-|-1-1-1-1-1-1-1-1-|-1-1-1-1-1-1-1-1-|


Bridge 1:
G|----------------|-----------------|-----------------|-----------------|
D|----------------|-----------------|-----------------|-----------------|
A|5-5-5-5-5-5-5-5-|-5-5-5-5-5-5-5-5-|-5-5-5-5-5-5-5-5-|-5-5-5-5-5-5-5-5-|
E|----------------|-----------------|-----------------|-----------------|


Verse:
G|----------------|-----------------|-----------------|-----------------|
D|----------------|-------------6-7-|-----------------|-------------6-7-|
A|----5-5-8-8-----|-----5-5-8-8-----|-----5-5-8-8-----|-----5-5-8-8-----|
E|------------4-5-|-----------------|-------------4-5-|-----------------|
X2
G|----------------|-----------------|
D|--------2-2-----|---------2-2-4-5-|
A|----3-3---------|-----3-3---------|
E|------------2-3-|-----------------|


Pre-Chorus:
G|----------------|-----------------|-----------------|-----------------|
D|----------------|-----------------|-----------------|-----------------|
A|5-5-5-5-5-5-5-5-|-5-5-5-5-5-5-5-5-|-4-4-4-4-4-4-4-4-|-4-4-4-4-4-4-4-4-|
E|----------------|-----------------|-----------------|-----------------|

G|----------------|-----------------|-----------------|-----------------|
D|----------------|-----------------|-----------------|-----------------|
A|5-5-5-5-5-5-5-5-|-7-7-7-7-7-7-7-7-|-8-8-8-8-8-8-8-8-|-1010101010101010|
E|----------------|-----------------|-----------------|-----------------|

G|----------------|
D|----------------|
A|----------------|
E|-3--------------|

Repeat Chorus


Bridge 2:
G|----------------|-----------------|
D|----------------|-----------------|
A|5-5-5-5-5-5-5-5-|-5-5-5-5-5-5-5-5-|
E|----------------|-----------------|

Repeat Verse
Repeat Pre-Chorus
Repeat Chorus two times

Repeat Bridge 1


Repeat Verse
Repeat Pre-Chorus
Repeat Chorus until the end (5x)

Lay All Your Love On Me bass tab

ABBA bass tabs for Lay all your love on me "Lay All Your Love on Me" is a song Swedish pop legends ABBA recorder for their seventh studio album, Super Trouper. "Lay All Your Love on Me" was later included in the Mamma Mia! musical and movie.

Almost there ...

Sign in to get your own page with links to favourite songs and more. You are just one click away...

Login with Facebook Login with Google