Log in

One click and you are in

Login with Facebook Login with Google

Why sign up and log in

Guitar Tabs Explorer
ABBA bass tabs for Knowing me knowing you

Bass tabs

std tuning EADG


INTRO
the lettered notes are for counting in only
G |-----------------|-----------------|-----------------|---------9-------|
D |-----------------|-----------------|-----------------|-----------------|
A |-D---E-----------|-----D-----------|-5-7-7-7-7-7-7-7-|-7-7-7-7---------|
E |-----------------|-B---------------|-----------------|-----------------|
  1 & 2 & 3 & 4 &  1 & 2 & 3 & 4 &  1 & 2 & 3 & 4 &  1 & 2 & 3 & 4 &

VERSE
G |-----------------|-7-9-7---7-------|-----------------|-----------------|
D |-----------------|-------9---------|-----------------|-6---------------|
A |-5---7-----------|-----------------|-5---7-9---------|---9-7-9-9-------|
E |-----------------|-----------------|-----------------|-----------------|X2
  1 & 2 & 3 & 4 &  1 & 2 & 3 & 4 &  1 & 2 & 3 & 4 &  1 & 2 & 3 & 4 &

G |-----------6-----|-----------6-----|-----------------|-----------------|
D |-9---9-9-9---9---|-9---9-9-9---9---|-7---7-7-7-9-7---|-7---7-7-7-9-7---|
A |-----------------|-----------------|-----------------|-----------------|
E |-----------------|-----------------|-----------------|-----------------|
  1 & 2 & 3 & 4 &  1 & 2 & 3 & 4 &  1 & 2 & 3 & 4 &  1 & 2 & 3 & 4 &
                             knowing me
G |-----------------|-----------------|-----------------|-----------------|
D |-5---5-5-5-7-5---|-5---5-5-5-7-5---|-----------------|-----------------|
A |-----------------|-----------------|-----------------|----REST---------|
E |-----------------|-----------------|-7--7-7-7-7-7-7--|-----------------|
  1 & 2 & 3 & 4 &  1 & 2 & 3 & 4 &  1 & 2 & 3 & 4 &  1 & 2 & 3 & 4 &


CHORUS
G |-----------------|-----------------|-----------------|-----------------|
D |-----------------|-----------------|-----------------|-----------------|
A |-5-5-7-7-7-7-7-7-|-7-7-7-7-7-7-7-7-|-7-7-----5-5-----|-5-5-7-7-7-7-7-7-|
E |-----------------|-----------------|-----5-5---------|-----------------|
  1 & 2 & 3 & 4 &  1 & 2 & 3 & 4 &  1 & 2 & 3 & 4 &  1 & 2 & 3 & 4 &

G |-----------------|-----------------|-----------------|-----------------|
D |-----------------|-----7-7-7-7-9-9-|-9-9-------------|-------------4-4-|
A |-7-7-7-7-7-7-7-7-|-7-7-------------|-----7-7-7-7-7-7-|-7-7-5-5-5-5-----|
E |-----------------|-----------------|-----------------|-----------------|
  1 & 2 & 3 & 4 &  1 & 2 & 3 & 4 &  1 & 2 & 3 & 4 &  1 & 2 & 3 & 4 &

G |-----------------|-----------------|-----------------|-------------------|
D |-4-4-5-5-5-5-7-7-|-7-7---------5-5-|-5-5-7-7-7-7-7-7-|-7-7-----5---------|
A |-----------------|-----5-5-5-5-----|-----------------|-----5-------7-9-7-|
E |-----------------|-----------------|-----------------|-------------------|
  1 & 2 & 3 & 4 &  1 & 2 & 3 & 4 &  1 & 2 & 3 & 4 &  1 & 2 & 3 & 4 &

FILL
G |-----------------|-----------------|-----------------|-----------------|
D |-----------------|-----------------|-----------------|-----------------|
A |-5---4---2-------|-----------------|-----------------|-----------------|
E |-------------5---|-3-0-2-----2-2---|-3---3--3-3-3----|-5---5--5-5-5----|X2
  1 & 2 & 3 & 4 &  1 & 2 & 3 & 4 &  1 & 2 & 3 & 4 &  1 & 2 & 3 & 4 &


REPEAT VERSE

REPEAT CHORUS


BRIDGE
G |-----------------|-----------------|-----------------|-----------------|
D |-----------------|-----------------|-----------------|-----------------|
A |-----------------|-----------------|-----------------|-----------------|
E |-5---7-----------|-----------------|-5---7-----------|-----------------|
  1 & 2 & 3 & 4 &  1 & 2 & 3 & 4 &  1 & 2 & 3 & 4 &  1 & 2 & 3 & 4 &

REPEAT CHORUS


ENDING
REPEAT FILL

Almost there ...

Sign in to get your own page with links to favourite songs and more. You are just one click away...

Login with Facebook Login with Google