Log in

One click and you are in

Login with Facebook Login with Google

Why sign up and log in

Guitar Tabs Explorer
ABBA bass tabs for I am just a girl

Bass tabs

Tuning: Standard (E A D G)

Difficulty: Novice

Album: Ring Ring
Year: 1973
Written by: Benny Andersson, Stig Anderson and Björn Ulvaeus

             A
   W          Q  Q  Q  Q    Q  Q  Q  Q    Q  Q  Q  Q
G||-------------------|----------------------|----------------------|--1-------------------|
D||-------------------|--2-------------------|--2---------2---------|------------1---------|
A||--2----------------|------------2---------|----------------------|----------------------|
E||-------------------|----------------------|----------------------|----------------------|
  Q  Q  Q  Q    Q  Q  Q  Q    Q  Q  Q  Q    Q  Q  Q  Q
|----------------------|----------------------|----------------------|----------------------|
|----------------------|------------6---------|----------------------|------------2---------|
|-----------------3----|--4-------------------|--4---------4----2----|--0-------------------|
|--4---------4---------|----------------------|----------------------|----------------------|


       B
  Q  Q  Q  Q    Q  Q  Q  Q    Q  Q  Q  Q    Q  Q  Q  Q
|----------------------|----------------------|----------------------|----------------------|
|----------------------|------------4---------|----------------------|--2---------1---------|
|--0---------0----4----|--2-------------------|--2---------2---------|----------------------|
|----------------------|----------------------|----------------------|----------------------|


  Q  Q  Q  Q    Q  Q  Q  Q    Q  Q  Q  Q    Q  Q  Q  E E
|----------------------|----------------------|-----------------3----|--4---------4-------4--|
|----------------------|--4-------------------|--4---------4---------|-----------------------|
|--4---------4---------|------------4---------|----------------------|-----------------------|
|----------------------|----------------------|----------------------|-----------------------|

             A
  Q  Q  H      Q  Q  Q  Q    Q  Q  Q  Q    Q  Q  Q  Q
|--4------------------|----------------------|----------------------|--1-------------------|
|---------------------|--2-------------------|--2---------2---------|------------1---------|
|-------2-------------|------------2---------|----------------------|----------------------|
|---------------------|----------------------|----------------------|----------------------|


  Q  Q  Q  Q    Q  Q  Q  Q    Q  Q  Q  Q    Q  Q  Q  Q
|----------------------|----------------------|----------------------|----------------------|
|----------------------|----------------------|----------------------|------------2---------|
|-----------------3----|--4-------------------|--4---------4----2----|--0-------------------|
|--4---------4---------|------------4---------|----------------------|----------------------|


       B
  Q  Q  Q  Q    Q  Q  Q  Q    Q  Q  Q  Q    Q  Q  Q  Q
|----------------------|----------------------|-----------------5----|--6---------4---------|
|----------------------|----------------------|------------6---------|----------------------|
|--0---------0----4----|--2---------2---------|--3-------------------|----------------------|
|----------------------|----------------------|----------------------|----------------------|


  Q  Q  H      Q  Q  Q  Q    Q  Q  Q  Q    Q  Q  Q  Q
|--2------------------|----------------------|----------------------|------------4---------|
|---------------------|--4---------4---------|----------------------|--2-------------------|
|-------0-------------|----------------------|--2---------2---------|----------------------|
|---------------------|----------------------|----------------------|----------------------|


             Bridge
  Q  Q  Q  Q    Q   Q  Q  Q    Q  Q  Q  Q    Q  Q  Q  Q
|-----------------4----|--5-----------5---------|----------------------|----------------------|
|--2---------6---------|------------------------|--5-------------------|------------0----4----|
|----------------------|------------------------|-----------------2----|--3-------------------|
|----------------------|------------------------|------------3---------|----------------------|


  Q  Q  Q  Q    Q  Q  Q  Q    Q  Q  Q  Q    Q  Q  Q  Q
|----------------------|--2---------4---------|--4---------9----7----|--6----4----3---------|
|--5---------5---------|----------------------|----------------------|-----------------4----|
|----------------------|----------------------|----------------------|----------------------|
|----------------------|----------------------|----------------------|----------------------|


             A
  Q  Q  H      Q  Q  Q  Q    Q  Q  Q  Q    Q  Q  Q  Q
|--4------------------|----------------------|----------------------|--1-------------------|
|---------------------|--2-------------------|--2---------2---------|------------1---------|
|-------2-------------|------------2---------|----------------------|----------------------|
|---------------------|----------------------|----------------------|----------------------|


  Q  Q  Q  Q    Q  Q  Q  Q    Q  Q  Q  Q    Q  Q  Q  Q
|----------------------|----------------------|----------------------|----------------------|
|----------------------|----------------------|----------------------|------------2---------|
|-----------------3----|--4-------------------|--4---------4----2----|--0-------------------|
|--4---------4---------|------------4---------|----------------------|----------------------|


       B
  Q  Q  Q  Q    Q  Q  Q  Q    Q  Q  Q  Q    Q  Q  Q  Q
|----------------------|----------------------|-----------------5----|--6---------4---------|
|----------------------|----------------------|------------6---------|----------------------|
|--0---------0----4----|--2---------2---------|--3-------------------|----------------------|
|----------------------|----------------------|----------------------|----------------------|


  Q  Q  H      Q  Q  Q  Q    Q  Q  Q  Q    Q  Q  Q  Q
|--2------------------|----------------------|----------------------|-----------------4----|
|---------------------|--4---------4---------|----------------------|--2---------6---------|
|-------0-------------|----------------------|--2---------2---------|----------------------|
|---------------------|----------------------|----------------------|----------------------|


             La la la
  Q  Q  H      Q    Q  Q  Q    Q  Q  Q  Q    Q  Q  Q  Q
|--5------------------|--------------------------|----------------------|--2-------------------|
|---------------------|--3-----------------------|--3---------3---------|------------2---------|
|-------3-------------|----------------3---------|----------------------|----------------------|
|---------------------|--------------------------|----------------------|----------------------|


  Q  Q  Q  Q    Q  Q  Q  Q    Q  Q  Q  Q    Q  Q  Q  Q
|----------------------|----------------------|----------------------|----------------------|
|----------------------|----------------------|----------------------|------------3---------|
|--0---------0----4----|--5---------0---------|--5---------5----3----|--1-------------------|
|----------------------|----------------------|----------------------|----------------------|


       B
  Q  Q  Q  Q    Q  Q  Q  Q    Q  Q  Q  Q    Q  Q  Q  E E
|----------------------|----------------------|-----------------6----|--7---------5-------5--|
|-----------------0----|----------------------|------------7---------|-----------------------|
|--1---------1---------|--3---------3---------|--4-------------------|-----------------------|
|----------------------|----------------------|----------------------|-----------------------|


  Q  Q  H      Q  Q  Q  Q    Q  Q  Q  Q    Q  Q  Q  Q
|--3------------------|----------------------|--5-------------------|----------------------|
|---------------------|--5---------5---------|-----------------2----|--3-------------------|
|-------1-------------|----------------------|------------3---------|------------3---------|
|---------------------|----------------------|----------------------|----------------------|


  W
|-------------------||
|-------------------||
|-------------------||
|--1----------------||



Duration 🏷Legend
---------------
W - whole
H - half
Q - quarter
E - 8th

Almost there ...

Sign in to get your own page with links to favourite songs and more. You are just one click away...

Login with Facebook Login with Google