Log in

One click and you are in

Login with Facebook Login with Google

Why sign up and log in

Guitar Tabs Explorer
ABBA bass tabs for Head over heels

Bass tabs with lyrics

| ABBA- Head Over Heels |
+++++++++++++++++++++++++


"She's extreme, if you know what I mean..."

Tuning: Standard EADG


Intro
1.
G|-------------------------------------------------|
D|-----2~--6x------------------1~--4x--------------|
A|-4x--------------0~--4x--2x------------------2x--|
E|-------------2x----------------------0x--4~------|

2.
G|-----------------------------------------------------------------------------|
D|-----2~--6x------------------------------2~--6x------------------2~--6--11x--|
A|-4x--------------0~--4x------3~--6x--4x--------------3~--6x--4x--------------|
E|-------------2x----------4x----------------------4x--------------------------|


Verse
"I have a very good friend..."
3.
G|--------------------------------------------------------------------------------------------|
D|-----------------4~--------2~--6x------2~--6x-----------------4~--------2~--6x------2~--6x--|
A|-----3~--6x----3-------4x----------4x-------------3~--6x----3-------4x----------4x----------|
E|-4x----------4------4-------------------------4x----------4------4--------------------------|


Pre-Chorus
"You hear her voice everywhere..."
4.
G|-----------------------------------------|
D|-----1~--4x------------------------------|
A|-2x--------------3~--6x--4-4-2-2-0-0-----|
E|-------------4x----------------------4-4-|

Chorus
"Head over heels breaking her way..."
5.
G|-4--2--1--2-------------4------------------------------------------------------------|
D|--------------------0-1-------------0-1x--------------2x-----------------6~----------|
A|------------2~--2-4---------2~--2-4-------------2-3-4-----442~--0~--0----------4~----|--x2
E|------------------------------------------4~--4----------------------4~--------------|


Verse
"Her man is one I admire..."
6.
G|--------------------------------------------------------------------------------------------|
D|-----------------4~--------2~--6x------2~--6x-----------------4~--------2~--6x------2~--6x--|
A|-----3~--6x----3-------4x----------4x-------------3~--6x----3-------4x----------4x----------|
E|-4x----------4------4-------------------------4x----------4------4--------------------------|


Pre-Chorus
"Exert that will of your own..."
7.
G|-----------------------------------------|
D|-----1~--4x------------------------------|
A|-2x--------------3~--6x--4-4-2-2-0-0-----|
E|-------------4x----------------------4-4-|


Chorus
"Head over heels breaking her way..."
8.
G|-4--2--1--2-------------4------------------------------------------------------------|
D|--------------------0-1-------------0-1x--------------2x-----------------6~----------|
A|------------2~--2-4---------2~--2-4-------------2-3-4-----442~--0~--0----------4~----|--x2
E|------------------------------------------4~--4----------------------4~--------------|


Bridge
10.
G|-------------------------------------------------|
D|-----2~--6x------------------1~--4x--------------|
A|-4x--------------0~--4x--2x------------------2x--|
E|-------------2x----------------------0x--4~------|

11.
G|-----------------------------------------------|
D|-----2~--6x------------------------------------|
A|-4x--------------0~--4x------3~--6x--4~--------|
E|-------------2x----------4x--------------------|


Pre-Chorus
"You hear her voice everywhere..."
12.
G|-----------------------------------------|
D|-----1~--4x------------------------------|
A|-2x--------------3~--6x--4-4-2-2-0-0-----|
E|-------------4x----------------------4-4-|


Chorus
"Head over heels breaking her way..."
13.
G|-4--2--1--2-------------4------------------------------------------------------------|
D|--------------------0-1-------------0-1x--------------2x-----------------6~----------|
A|------------2~--2-4---------2~--2-4-------------2-3-4-----442~--0~--0----------4~----|--x2
E|------------------------------------------4~--4----------------------4~--------------|


Outro
"And she goes head over heels..."
14.
G|-----------------------------------------|
D|-----------------------------------------|
A|-2~----0~--------------0~----------------|
E|-------------4~--------------------------|


Please rate thank you!


Lyrics:

I have a very good friend
The kind of girl who likes to follow a trend
She has a personal style
Some people like it, others tend to go wild
You hear her voice everywhere
Taking the chair
She's a leading lady
And with no trace of hesitation she keeps going

Head over heels
Breaking her way
Pushing through unknown jungles every day
She's a girl with a taste for the world
(The world is like a playing-ground where she goes rushing)
Head over heels
Setting the pace
Running the gauntlet in a whirl of lace
She's extreme, if you know what I mean

Her man is one I admire
He's so courageous but he's constantly tired
Each time when he speaks his mind
She pats his head and says, ÒThat's all very fine
Exert that will of your own
When you're alone
Now we'd better hurry
And with no trace of hesitation she keeps going

You hear her voice everywhere
Taking the chair
She's a leading lady
And with no trace of hesitation she keeps going

(She's just one of those who always has to do whatever she please)
And she goes
Head over heels


+++++++++++++++++++++++++++++++++
| RaiLeff            |
| Underground__Dora@Hotmail.Com |

Almost there ...

Sign in to get your own page with links to favourite songs and more. You are just one click away...

Login with Facebook Login with Google