Log in

One click and you are in

Login with Facebook Login with Google

Why sign up and log in

Guitar Tabs Explorer
ABBA bass tabs for Eagle extended version

Bass tabs

INTRO
G |-----------------|-----------------|-----------------|-----------------|
D |-----------------|-----------------|-----------------|-----------------|
A |-----------------|-----------------|-7---7-----5-7---|-7---7-----5-7---|
E |-----------------|-----------------|---------7-----0-|---------7-----0-|
  1 & 2 & 3 & 4 &  1 & 2 & 3 & 4 &  1 & 2 & 3 & 4 &  1 & 2 & 3 & 4 &

G |-----------------|-----------------|-----------------|-12--12--11------|
D |-----------------|-7---------------|-----------------|-------------12--|
A |-7---7-----5-7---|-----7-----5-7---|---5-7-----------|-----------------|
E |---------7-----0-|---------7-----0-|-5-----0---------|-----------------|
  1 & 2 & 3 & 4 &  1 & 2 & 3 & 4 &  1 & 2 & 3 & 4 &  1 & 2 & 3 & 4 &
VERSE
G |-----------------|-----------------|-----------------|-------121112-11911-|
D |-----------------|-----------------|-----------------|-----------------|
A |-7---7-----5-7---|-7---7-----5-7---|-7---7-----5-7---|-5-7-------------|
E |---------7-----0-|---------7-----0-|---------7-----0-|-----0-----------|
  1 & 2 & 3 & 4 &  1 & 2 & 3 & 4 &  1 & 2 & 3 & 4 &  1 & 2 & 3 & 4 &

G |-----------------|-----------------|-----------------|-----------------|
D |-----------------|-----------------|-----------------|-----------------|
A |-7---7-----5-7---|-5---5---5---5---|-7---7-----5-7---|-7---7-----5-7---|
E |---------7-----0-|-----------------|---------7-----0-|---------7-----0-|
  1 & 2 & 3 & 4 &  1 & 2 & 3 & 4 &  1 & 2 & 3 & 4 &  1 & 2 & 3 & 4 &

G |-----------------|-----------------|-----------------|-----------------|
D |-----------------|-----------------|-----------------|-----------------|
A |-7---7-----5-7---|-7---7-----5-7---|-7---7-----5-7---|-7-------4---5---|
E |---------7-----0-|---------7-----0-|---------7-----0-|-----7-----------|
  1 & 2 & 3 & 4 &  1 & 2 & 3 & 4 &  1 & 2 & 3 & 4 &  1 & 2 & 3 & 4 &

G |-----------------|-----------------|-----------------|
D |-----------------|-----------------|-----------------|
A |-7---7-----5-7---|-5---5---5---5---|-7---7-----5-7---|
E |---------7-----0-|-----------------|---------7-----5-|
  1 & 2 & 3 & 4 &  1 & 2 & 3 & 4 &  1 & 2 & 3 & 4 &

PRE CHORUS
G |-----------------|-11-9-11-12------|-----------------|-----------------|
D |-----------------|-----------------|-11-9-7----------|-----------------|
A |-----------------|-----------------|--------5--------|-----------------|
E |-7---------------|-----------------|-----------------|-----------------|
  1 & 2 & 3 & 4 &  1 & 2 & 3 & 4 &  1 & 2 & 3 & 4 &  1 & 2 & 3 & 4 &


CHORUS
G |-----------------|-----------------|-----------------|-----------------|
D |-----------------|-----------------|-----------------|-----------------|
A |---------5-------|-7-------5-------|-7-------5-------|-7---7-----5-7---|
E |-7---------------|-----------------|-----------------|---------7-----0-|
  1 & 2 & 3 & 4 &  1 & 2 & 3 & 4 &  1 & 2 & 3 & 4 &  1 & 2 & 3 & 4 &

G |-----------------|-----------------|-----------------|-----------------|
D |-----------------|-----------------|-----------------|-----------------|
A |---------5-------|-7-------5-------|-7-------5-------|-7---7-----5-7---|
E |-7---------------|-----------------|-----------------|---------7-----0-|
  1 & 2 & 3 & 4 &  1 & 2 & 3 & 4 &  1 & 2 & 3 & 4 &  1 & 2 & 3 & 4 &

G |-----------------|-----------------|-----------------|-----------------|
D |-----------------|-----------------|-----------------|-----------------|
A |-----------------|-5---------------|-----------------|-----------------|
E |-7---------------|-----------------|-8---------------|-----------------|
  1 & 2 & 3 & 4 &  1 & 2 & 3 & 4 &  1 & 2 & 3 & 4 &  1 & 2 & 3 & 4 &


BRIDGE
G |-----------------|-----------------|-----------------|-12--12--11------|
D |-----------------|-7---------------|-7---------------|-------------12--|
A |-7---7-----5-7---|-----7-----5-7---|-----7-----5-7---|-----------------|
E |---------7-----0-|---------7-----0-|---------7-----0-|-----------------|
  1 & 2 & 3 & 4 &  1 & 2 & 3 & 4 &  1 & 2 & 3 & 4 &  1 & 2 & 3 & 4 &


VERSE
G |-----------------|-----------------|-----------------|-------121112-11911-|
D |-----------------|-----------------|-----------------|-----------------|
A |-7---7-----5-7---|-7---7-----5-7---|-7---7-----5-7---|-5-7-------------|
E |---------7-----0-|---------7-----0-|---------7-----0-|-----0-----------|
  1 & 2 & 3 & 4 &  1 & 2 & 3 & 4 &  1 & 2 & 3 & 4 &  1 & 2 & 3 & 4 &

G |-----------------|-----------------|-----------------|-----------------|
D |-----------------|-----------------|-----------------|-----------------|
A |-7---7-----5-7---|-5---5---5---5---|-7---7-----5-7---|-7---7-----5-7---|
E |---------7-----0-|-----------------|---------7-----0-|---------7-----0-|
  1 & 2 & 3 & 4 &  1 & 2 & 3 & 4 &  1 & 2 & 3 & 4 &  1 & 2 & 3 & 4 &

G |-----------------|-----------------|-----------------|-----------------|
D |-----------------|-----------------|-----------------|-----------------|
A |-7---7-----5-7---|-7---7-----5-7---|-7---7-----5-7---|-7-------4---5---|
E |---------7-----0-|---------7-----0-|---------7-----0-|-----7-----------|
  1 & 2 & 3 & 4 &  1 & 2 & 3 & 4 &  1 & 2 & 3 & 4 &  1 & 2 & 3 & 4 &

G |-----------------|-----------------|-----------------|
D |-----------------|-----------------|-----------------|
A |-7---7-----5-7---|-5---5---5---5---|-7---7-----5-7---|
E |---------7-----0-|-----------------|---------7-----5-|
  1 & 2 & 3 & 4 &  1 & 2 & 3 & 4 &  1 & 2 & 3 & 4 &


PRE CHORUS
G |-----------------|-11-9-11-12------|-----------------|-----------------|
D |-----------------|-----------------|-11-9-7----------|-----------------|
A |-----------------|-----------------|--------5--------|-----------------|
E |-7---------------|-----------------|-----------------|-----------------|
  1 & 2 & 3 & 4 &  1 & 2 & 3 & 4 &  1 & 2 & 3 & 4 &  1 & 2 & 3 & 4 &


CHORUS
G |-----------------|-----------------|-----------------|-----------------|
D |-----------------|-----------------|-----------------|-----------------|
A |---------5-------|-7-------5-------|-7-------5-------|-7---7-----5-7---|
E |-7---------------|-----------------|-----------------|---------7-----0-|
  1 & 2 & 3 & 4 &  1 & 2 & 3 & 4 &  1 & 2 & 3 & 4 &  1 & 2 & 3 & 4 &

G |-----------------|-----------------|-----------------|-----------------|
D |-----------------|-----------------|-----------------|-----------------|
A |---------5-------|-7-------5-------|-7-------5-------|-7---7-----5-7---|
E |-7---------------|-----------------|-----------------|---------7-----0-|
  1 & 2 & 3 & 4 &  1 & 2 & 3 & 4 &  1 & 2 & 3 & 4 &  1 & 2 & 3 & 4 &

G |-----------------|-----------------|-----------------|-----------------|
D |-----------------|-----------------|-----------------|-----------------|
A |-----------------|-5---------------|-----------------|-----------------|
E |-7---------------|-----------------|-8---------------|-----------------|
  1 & 2 & 3 & 4 &  1 & 2 & 3 & 4 &  1 & 2 & 3 & 4 &  1 & 2 & 3 & 4 &

GUITAR
G |-----------------|-----------------|-----------------|-----------------|
D |-----------------|-----------------|-----------------|-----------------|
A |-7---7-----5-7---|-5---5---3-5-7-5-|-----------------|-----5---7-------|
E |---------7-----0-|-----------------|-5---5---3-5-7-5-|-8---------------|
  1 & 2 & 3 & 4 &  1 & 2 & 3 & 4 &  1 & 2 & 3 & 4 &  1 & 2 & 3 & 4 &

G |-----------------|-----------------|-----------------|-----------------|
D |-----------------|-----------------|-----------------|-----------------|
A |-7---7-----5-7---|-5---5---3-5-7-5-|-----------------|-----5---7-------|
E |---------7-----0-|-----------------|-5---5---3-5-7-5-|-8---------------|
  1 & 2 & 3 & 4 &  1 & 2 & 3 & 4 &  1 & 2 & 3 & 4 &  1 & 2 & 3 & 4 &


PRE CHORUS
G |-----------------|-11-9-11-12------|-----------------|-----------------|
D |-----------------|-----------------|-11-9-7----------|-----------------|
A |-----------------|-----------------|--------5--------|-----------------|
E |-7---------------|-----------------|-----------------|-----------------|
  1 & 2 & 3 & 4 &  1 & 2 & 3 & 4 &  1 & 2 & 3 & 4 &  1 & 2 & 3 & 4 &


CHORUS
G |-----------------|-----------------|-----------------|-----------------|
D |-----------------|-----------------|-----------------|-----------------|
A |---------5-------|-7-------5-------|-7-------5-------|-7---7-----5-7---|
E |-7---------------|-----------------|-----------------|---------7-----0-|
  1 & 2 & 3 & 4 &  1 & 2 & 3 & 4 &  1 & 2 & 3 & 4 &  1 & 2 & 3 & 4 &

G |-----------------|-----------------|-----------------|-----------------|
D |-----------------|-----------------|-----------------|-----------------|
A |---------5-------|-7-------5-------|-7-------5-------|-7---7-----5-7---|
E |-7---------------|-----------------|-----------------|---------7-----0-|
  1 & 2 & 3 & 4 &  1 & 2 & 3 & 4 &  1 & 2 & 3 & 4 &  1 & 2 & 3 & 4 &

G |-----------------|-----------------|-----------------|-----------------|
D |-----------------|-----------------|-----------------|-----------------|
A |---------5-------|-7-------5-------|-7-------5-------|-7---7-----5-7---|
E |-7---------------|-----------------|-----------------|---------7-----0-|
  1 & 2 & 3 & 4 &  1 & 2 & 3 & 4 &  1 & 2 & 3 & 4 &  1 & 2 & 3 & 4 &

G |-----------------|-----------------|-----------------|-----------------|
D |-----------------|-----------------|-----------------|-----------------|
A |---------5-------|-7-------5-------|-7-------5-------|-7---7-----5-7---|
E |-7---------------|-----------------|-----------------|---------7-----0-|
  1 & 2 & 3 & 4 &  1 & 2 & 3 & 4 &  1 & 2 & 3 & 4 &  1 & 2 & 3 & 4 &

G |-----------------|-----------------|-----------------|-----------------|
D |-----------------|-----------------|-----------------|-----------------|
A |---------5-------|-7-------5-------|-7-------5-------|-7---7-----5-7---|
E |-7---------------|-----------------|-----------------|---------7-----0-|
  1 & 2 & 3 & 4 &  1 & 2 & 3 & 4 &  1 & 2 & 3 & 4 &  1 & 2 & 3 & 4 &

G |-----------------|-----------------|-----------------|-----------------|
D |-----------------|-----------------|-----------------|-----------------|
A |---------5-------|-7-------5-------|-7-------5-------|-7---7-----5-7---|
E |-7---------------|-----------------|-----------------|---------7-----0-|
  1 & 2 & 3 & 4 &  1 & 2 & 3 & 4 &  1 & 2 & 3 & 4 &  1 & 2 & 3 & 4 &

G |-----------------|-----------------|-----------------|-----------------|
D |-----------------|-----------------|-----------------|-----------------|
A |---------5-------|-7-------5-------|-7-------5-------|-7---7-----5-7---|
E |-7---------------|-----------------|-----------------|---------7-----0-|
  1 & 2 & 3 & 4 &  1 & 2 & 3 & 4 &  1 & 2 & 3 & 4 &  1 & 2 & 3 & 4 &

G |-----------------|-----------------|-----------------|-----------------|
D |-----------------|-----------------|-----------------|-----------------|
A |---------5-------|-7-------5-------|-7-------5-------|-7---7-----5-7---|
E |-7---------------|-----------------|-----------------|---------7-----0-|
  1 & 2 & 3 & 4 &  1 & 2 & 3 & 4 &  1 & 2 & 3 & 4 &  1 & 2 & 3 & 4 &

G |-----------------|-----------------|-----------------|-----------------|
D |-----------------|-----------------|-----------------|-----------------|
A |-----------------|-5---------------|-----------------|-----------------|
E |-7---------------|-----------------|-8---------------|-----------------|
  1 & 2 & 3 & 4 &  1 & 2 & 3 & 4 &  1 & 2 & 3 & 4 &  1 & 2 & 3 & 4 &


ENDING
G |-----------------|-----------------|-----------------|-12--12--11------|
D |-----------------|-7---------------|-7---------------|-------------12--|
A |-7---7-----5-7---|-----7-----5-7---|-----7-----5-7---|-----------------|
E |---------7-----0-|---------7-----0-|---------7-----0-|-----------------|
  1 & 2 & 3 & 4 &  1 & 2 & 3 & 4 &  1 & 2 & 3 & 4 &  1 & 2 & 3 & 4 &

REPEAT AN FADE

Almost there ...

Sign in to get your own page with links to favourite songs and more. You are just one click away...

Login with Facebook Login with Google