Log in

One click and you are in

Login with Facebook Login with Google

Why sign up and log in

Guitar Tabs Explorer
ABBA bass tabs for Eagle

Bass tabs

Tuning: Standard


> slide up
< slide down
INTRO
G |----------7>9----|-----------------|-----------------|-------------121211<7
D |-----------------|-----------------|-----------------|-7---------------|
A |-2>-7------------|-7-7-57--7-7-57--|-7-7-57--7-7-57--|---7-57--579-----|
E |-----------------|----7-------7----|----7-------7----|----7---7--------|
  1 & 2 & 3 & 4 &  1 & 2 & 3 & 4 &  1 & 2 & 3 & 4 &  1 & 2 & 3 & 4 &

VERSE 1
                (not enough room to fit on scale)
G |-----------------|------------12111211911------------|-----------------|
D |-----------------|-----------------|-----------------|-----------------|
A |-7-7-57--7-7-57--|-7-7-57--7-7-----|-7-7-57---5-5----|-7-7-57--7-7-57--|
E |----7-------7----|----7------------|----7------------|----7-------7----|
  1 & 2 & 3 & 4 &  1 & 2 & 3 & 4 &  1 & 2 & 3 & 4 &  1 & 2 & 3 & 4 &

G |-----------------|-----------------|-----------------|-----------------|
D |-----------------|-----------9-----|-----------------|-----------------|
A |-7-7-57--7-7-57--|-7-7-57--7---4-5-|-7-7-57---5-5--5-|---------7-------|
E |----7-------7----|----7------------|----7------------|-----------------|
  1 & 2 & 3 & 4 &  1 & 2 & 3 & 4 &  1 & 2 & 3 & 4 &  1 & 2 & 3 & 4 &

PRE CHORUS

G |-----------------|-11-9-11-12------|-12-11-9---------|-----------------|
D |------7-9--------|-----------------|---------7-------|-----------------|
A |-7-10------------|-----------------|-----------------|-----------------|
E |-----------------|-----------------|-----------------|-----------------|
  1 & 2 & 3 & 4 &  1 & 2 & 3 & 4 &  1 & 2 & 3 & 4 &  1 & 2 & 3 & 4 &

CHORUS

G |-----------------|-----------------|-----------------|-----------------|
D |-----------------|-----------------|-----------------|-----------------|
A |-----------------|-------7-7-57----|-----------------|-------7-7--57---|
E |-7---5---7---5---|-7---5----7------|-7---5---7---5---|-7---5-----7-----|
  1 & 2 & 3 & 4 &  1 & 2 & 3 & 4 &  1 & 2 & 3 & 4 &  1 & 2 & 3 & 4 &

BRIDGE

G |-----------------|-----------------|-----------------|-----------------|
D |-----------------|-----------------|-----------------|-----------------|
A |-----------------|-----------------|-----------------|-----------------|
E |-7-------5-------|-8---REST--------|-----------------|-----------------|
  1 & 2 & 3 & 4 &  1 & 2 & 3 & 4 &  1 & 2 & 3 & 4 &  1 & 2 & 3 & 4 &
REPEAT INTRO
REPEAT VERSE
REPEAT PRE CHORUS
REPEAT CHORUS TWO TIMES
REEAT BRIDGE
REPEAT INTRO TO PLAY OUT

Other versions of Eagle

Eagle extended versionBass tabs

Almost there ...

Sign in to get your own page with links to favourite songs and more. You are just one click away...

Login with Facebook Login with Google