Log in

One click and you are in

Login with Facebook Login with Google

Why sign up and log in

Guitar Tabs Explorer
ABBA bass tabs for Disillusion

Bass tabs

Tuning: Standard (E A D G)

Key: D

Difficulty: Intermediate

Album: Ring Ring
Year: 1973
Written by: Agnetha Fältskog and Björn Ulvaeus
Bass: Mike Watson
  INTRO                  VERSE
   W          W          Q.   S S S S Q  E   Q  E Q  E  Q
G|-------------------|-------------------|-------------------------|-------------------------|
D|-------------------|-------------------|-------------------------|--5-------4--------------|
A|-------------------|-------------------|--5--------x-5---5----5--|-------------------------|
E|-------------------|-------------------|-------------------------|------------------12S----|


  Q  E. S S S Q  E   H    S S E. S S S  Q.   S S S S E E E   Q  E Q  E  Q
G|-------------------------|-------------------------|--------------------------|-------------------------|
D|-------------------------|--7--------7-7-----7-----|--------------------------|--5-------4--------------|
A|-------------5---5----5--|---------------------7---|--5--------x-5---5-----5--|-------------------------|
E|--5----L---5-------------|-----------------------5-|--------------------------|------------------12S----|


  Q  E. S S S Q  E   Q  E. S S S E E  E   Q  E E Q  E E  Q  E. S S S S E S S S
G|-------------------------|----------------------------|------------------------|---------------------------|
D|-------------------------|--7----L-----7---7----------|-------------5-------5--|---------------------------|
A|-------------5---5----5--|-----------7----------------|--5-------5-------------|3----L-----3---3------3h-5-|
E|--5----L---5-------------|-----------------------12\--|------------------------|---------3----------3------|


                     CHORUS
  Q  E E S S E Q    E. S Q  Q   Q    Q  S S E Q  S S E   Q  S S E Q  S S E
G|--------------------------|-------------------------|-------9-----------9------|-------9------------------|
D|--------------------------|-------------4------6----|--7--------7--6--------7--|--5------9-----------7----|
A|-------------2-2----2S----|--7-----7----------------|---------7-----------7----|-----------7--5----L---5--|
E|--3-------3---------------|------7------------------|--------------------------|--------------------------|

  H    E S S S S E   Q.   E S S E E E   Q.   E S S Q.    Q  E E S S Q  E
G|------------------------4--|-------------------------|-----------------------|-------------------------|
D|--5--------L-------5h-7----|--0------L--0---0-----0--|--1------1--2---2------|--2-------2--1---1----1--|
A|--------------5h-7---------|-------------------------|-----------------------|-------------------------|
E|---------------------------|-------------------------|-----------------------|-------------------------|


  Q  S E. E. S Q    Q  Q    Q  S S E Q  S S E   Q  S S E Q  S S E   H
G|---------4--------------|------------|-------9-----------9------|-------9------------------|------------|
D|-------4-----2-----2----|--4----6----|--7--------7--6--------7--|--5------9-----------7----|--5S--------|
A|--2--------------2------|------------|---------7-----------7----|-----------7--5----L---5--|------------|
E|------------------------|------------|--------------------------|--------------------------|------------|


  INTERLUDE                 VERSE
   H    H      H    E Q.    Q.   S S S S Q  E   Q  E Q  E  Q
G|---------------------|---------------------|-------------------------|-------------------------|
D|--10--------8--------|--------------5------|-------------------------|--5-------4--------------|
A|---------------------|--6--------8---------|--5--------x-5---5----5--|-------------------------|
E|---------------------|---------------------|-------------------------|------------------12S----|


  Q  E. S S S Q  E   Q  E. S S S E. S S S  Q.   S S S S E S S E   Q  E Q  E  Q
G|-------------------------|---------------------------|---------------------------|-------------------------|
D|-------------------------|--7----7-----7---7-----7---|------------------------4--|--5-------4--------------|
A|-------------5---5----5--|-----------7---------7---7-|--5--------x-5---5----5----|-------------------------|
E|--5----L---5-------------|---------------------------|---------------------------|------------------12S----|


  Q  E. S S S Q  E   Q.   S S E S E E.   Q  E E S S E S S E
G|-------------------------|---------7-9-14--7-9------|---------------------------|
D|-------------------------|--7-------------------7---|-------------5---5------5--|
A|-------------5---5----5--|--------------------------|--5-------5-----------5----|
E|--5----L---5-------------|--------------------------|---------------------------|


                                     CHORUS
  Q  E. S S S S E S S S  Q  E E E E S S E   E. S Q  Q   Q
G|-----------------------------|---------------------------|-------------------------|
D|-----------------------------|---------------------------|-------------4------6----|
A|--3----L-----3---3------3h-5-|-------------2--2------2S--|--7-----7----------------|
E|-----------3----------3------|--3-------3----------3-----|------7------------------|


  Q  S S E Q  S S E   Q  S S E Q  S S E   H    E S S S S E   Q.   E S S E E E
G|-------9-----------9------|-------9------------------|------------------------4--|-------------------------|
D|--7--------7--6--------7--|--5------9-----------7----|--5--------L-------5h-7----|--0------L--0---0-----0--|
A|---------7-----------7----|-----------7--5----L---5--|--------------5h-7---------|-------------------------|
E|--------------------------|--------------------------|---------------------------|-------------------------|


  Q.   E S S Q.    Q  E E S S Q  E   S S E E E S S E Q    Q  Q
G|-----------------------|-------------------------|---------------------------|------------|
D|--1------1--2---2------|--2-------2--1---1----1--|---------------2---2-------|--4----6----|
A|-----------------------|-------------------------|--2---2-----2--------------|------------|
E|-----------------------|-------------------------|---------------------------|------------|


                                  OUTRO
  Q  S S E Q  S S E   Q  S S E Q  S S E   H    Q   Q    Q  S S E Q  S S E
G|-------9-----------9------|-------9------------------|----------------------|-------9-----------9------|
D|--7--------7--6--------7--|--5------9-----------7----|--5--------4-----6----|--7--------7--6--------7--|
A|---------7-----------7----|-----------7--5----L---5--|----------------------|---------7-----------7----|
E|--------------------------|--------------------------|----------------------|--------------------------|


  Q  S S E Q  S S E   H       H    H      H    E Q.
G|-------9------------------|------------|---------------------|---------------------||
D|--5------9-----------7----|--5S--------|--10--------8--------|--------------5------||
A|-----------7--5----L---5--|------------|---------------------|--6--------8---------||
E|--------------------------|------------|---------------------|---------------------||



Duration 🏷Legend
---------------
W - whole
H - half
Q - quarter
E - 8th
S - 16th
. - note dotted

Tablature 🏷Legend
----------------
L - tied note
x - dead note
h - hammer on
S - shift slide (pick both notes)
/ - slide into from below or out of upwards
\ - slide into from above or out of downwards

Almost there ...

Sign in to get your own page with links to favourite songs and more. You are just one click away...

Login with Facebook Login with Google