Log in

One click and you are in

Login with Facebook Login with Google

Why sign up and log in

Guitar Tabs Explorer
ABBA bass tabs for Dance while the music still goes on

Dance While The Music Still Goes On bass tab by ABBA

ABBA bass tabs for Dance while the music still goes on

Bass tabs

Tuning: Standard (E A D G)

Difficulty: Novice

Album: Waterloo
Year: 1974
Written by: Benny Andersson and Björn Ulvaeus
Bass: Per Sahlberg

The song is actually tuned a little above E standard. About 25 cents or 1/4 of a semitone.

  Verse
   W          W          W          W          W
G||-------------------|-------------------|-------------------|-------------------|-------------------|
D||-------------------|-------------------|-------------------|-------------------|-------------------|
A||-------------------|-------------------|-------------------|-------------------|-------------------|
E||-------------------|-------------------|-------------------|-------------------|-------------------|
                                         Chorus A
  W          W          W          W          Q  E E Q  Q
|-------------------|-------------------|-------------------|-------------------|-----------------------|
|-------------------|-------------------|-------------------|-------------------|--5-------5--5---------|
|-------------------|-------------------|-------------------|-------------------|-----------------------|
|-------------------|-------------------|-------------------|-------------------|-----------------------|


  Q  E E Q  Q    Q  E E Q  Q    Q  E E Q  Q    Q  E E Q  Q
|-----------------------|--5-------5--5---------|--7-------7--7---------|-----------------------|
|--5-------5--5---------|-----------------------|-----------------------|--5-------5--5---------|
|-----------------------|-----------------------|-----------------------|-----------------------|
|-----------------------|-----------------------|-----------------------|-----------------------|


  Q  E E Q  Q    Q  E E Q  Q    Q  E E Q  Q    Q  E E Q  Q
|-----------------------|--5-------5--5---------|--7-------7--7---------|-----------------------|
|--5-------5--5---------|-----------------------|-----------------------|--5-------5--5---------|
|-----------------------|-----------------------|-----------------------|-----------------------|
|-----------------------|-----------------------|-----------------------|-----------------------|

  Q  E E Q  Q    Q  E E Q  Q    Q  E E Q  Q    Q  E E Q  Q
|-----------------------|--5-------5--5---------|--5-------5--5---------|-----------------------|
|--5-------5--5---------|-----------------------|-----------------------|--5-------5--5---------|
|-----------------------|-----------------------|-----------------------|-----------------------|
|-----------------------|-----------------------|-----------------------|-----------------------|


                                     Chorus B
  Q  E E Q  Q    Q  E E Q  Q    Q  E E Q  Q    Q  E E Q  Q
|-----------------------|--5-------5--5---------|--7-------7--7---------|-----------------------|
|--2-------2--2---------|-----------------------|-----------------------|--5-------5--5---------|
|-----------------------|-----------------------|-----------------------|-----------------------|
|-----------------------|-----------------------|-----------------------|-----------------------|


  Q  E E Q  Q    Q  E E Q  Q    Q  E E Q  Q    Q  E E Q  Q
|-----------------------|--5-------5--5---------|--7-------7--7---------|-----------------------|
|--5-------5--5---------|-----------------------|-----------------------|--5-------5--5---------|
|-----------------------|-----------------------|-----------------------|-----------------------|
|-----------------------|-----------------------|-----------------------|-----------------------|


  Q  E E Q  Q    Q  E E Q  Q    Q  E E Q  Q    Q  E E Q  Q
|-----------------------|--5-------5--5---------|--7-------7--7---------|-----------------------|
|--5-------5--5---------|-----------------------|-----------------------|--5-------5--5---------|
|-----------------------|-----------------------|-----------------------|-----------------------|
|-----------------------|-----------------------|-----------------------|-----------------------|


  Q  E E Q  Q    Q  E E Q  Q    Q  E E Q  Q    Q  E E Q  Q
|-----------------------|--5-------5--5---------|--5-------5--5---------|-----------------------|
|--5-------5--5---------|-----------------------|-----------------------|--5-------5--5---------|
|-----------------------|-----------------------|-----------------------|-----------------------|
|-----------------------|-----------------------|-----------------------|-----------------------|


  Q  E E Q  Q    Q  E E Q  Q    Q  E E Q  Q    Q  E E Q  Q
|-----------------------|--5-------5--5---------|--7-------7--7---------|-----------------------|
|--2-------2--2---------|-----------------------|-----------------------|--5-------5--5---------|
|-----------------------|-----------------------|-----------------------|-----------------------|
|-----------------------|-----------------------|-----------------------|-----------------------|


             Verse
  Q  Q  Q  Q    Q  E E Q  Q    Q  E E Q  Q    Q  E E Q  Q
|------------5----4----|-----------------------|-----------------------|-----------------------|
|--5-------------------|--7-------7--7---------|--7-------7--7---------|--5-------5--5---------|
|----------------------|-----------------------|-----------------------|-----------------------|
|----------------------|-----------------------|-----------------------|-----------------------|


  Q  E E Q  Q    Q  E  E  Q  Q    Q  E E Q  Q    Q  E  E  Q  Q
|-----------------------|--------------------------|-----------------------|--------------------------|
|--5-------5--5---------|--10-------10--10---------|--7-------7--7---------|--12-------12--12---------|
|-----------------------|--------------------------|-----------------------|--------------------------|
|-----------------------|--------------------------|-----------------------|--------------------------|


               Chorus C
  Q  E  E  Q  Q    Q  E E Q  Q    Q  E E Q  Q    Q  E E Q  Q
|--------------------------|-----------------------|-----------------------|--5-------5--5---------|
|--12-------12--12---------|--5-------5--5---------|--5-------5--5---------|-----------------------|
|--------------------------|-----------------------|-----------------------|-----------------------|
|--------------------------|-----------------------|-----------------------|-----------------------|


  Q  E E Q  Q    Q  E E Q  Q    Q  E E Q  Q    Q  E E Q  Q
|--7-------7--7---------|-----------------------|-----------------------|--5-------5--5---------|
|-----------------------|--5-------5--5---------|--5-------5--5---------|-----------------------|
|-----------------------|-----------------------|-----------------------|-----------------------|
|-----------------------|-----------------------|-----------------------|-----------------------|


  Q  E E Q  Q    Q  E E Q  Q    Q  E E Q  Q    Q  E E Q  Q
|--7-------7--7---------|-----------------------|-----------------------|--5-------5--5---------|
|-----------------------|--5-------5--5---------|--5-------5--5---------|-----------------------|
|-----------------------|-----------------------|-----------------------|-----------------------|
|-----------------------|-----------------------|-----------------------|-----------------------|


  Q  E E Q  Q    Q  E E Q  Q    Q  E E Q  Q    Q  E E Q  Q
|--5-------5--5---------|-----------------------|-----------------------|-----------------------|
|-----------------------|--5-------5--5---------|--2-------2--2---------|-----------------------|
|-----------------------|-----------------------|-----------------------|--3-------3--3---------|
|-----------------------|-----------------------|-----------------------|-----------------------|


                                          Chorus D
  Q  E E Q  Q    Q  E E Q  Q    Q   E  E  E  E  E  E   Q  E E Q  Q
|-----------------------|-----------------------|----------------10--13--13--10--|-----------------------|
|-----------------------|--5-------5--5---------|--13----13--13------------------|--6-------6--6---------|
|--5-------5--5---------|-----------------------|--------------------------------|-----------------------|
|-----------------------|-----------------------|--------------------------------|-----------------------|


 Q  E E Q  Q    Q  E E Q  Q    Q  E E Q  Q    Q  E E Q  Q
|-----------------------|--6-------6--6---------|--8-------8--8---------|-----------------------|
|--6-------6--6---------|-----------------------|-----------------------|--6-------6--6---------|
|-----------------------|-----------------------|-----------------------|-----------------------|
|-----------------------|-----------------------|-----------------------|-----------------------|


  Q  E E Q  Q    Q  E E Q  Q    Q  E E Q  Q    Q  E E Q  Q
|-----------------------|--6-------6--6---------|--8-------8--8---------|-----------------------|
|--6-------6--6---------|-----------------------|-----------------------|--6-------6--6---------|
|-----------------------|-----------------------|-----------------------|-----------------------|
|-----------------------|-----------------------|-----------------------|-----------------------|


  Q  E E Q  Q    Q  E E Q  Q    Q  E E Q  Q    Q  E E Q  Q
|-----------------------|--6-------6--6---------|--6-------6--6---------|-----------------------|
|--6-------6--6---------|-----------------------|-----------------------|--6-------6--6---------|
|-----------------------|-----------------------|-----------------------|-----------------------|
|-----------------------|-----------------------|-----------------------|-----------------------|


  Q  E E Q  Q    Q  E E Q  Q    Q  E E Q  Q    Q  E E Q  Q
|-----------------------|-----------------------|-----------------------|-----------------------|
|--3-------3--3---------|-----------------------|-----------------------|--6-------6--6---------|
|-----------------------|--4-------4--4---------|--6-------6--6---------|-----------------------|
|-----------------------|-----------------------|-----------------------|-----------------------|


                  Chorus E
  Q   E  E  E  E  E  E   Q  E E Q  Q    Q  E E Q  Q    Q  E E Q  Q
|----------------11--14--14--11--|-----------------------|-----------------------|--7-------7--7---------|
|--14----14--14------------------|--7-------7--7---------|--7-------7--7---------|-----------------------|
|--------------------------------|-----------------------|-----------------------|-----------------------|
|--------------------------------|-----------------------|-----------------------|-----------------------|


  Q  E E Q  Q    Q  E E Q  Q    Q  E E Q  Q    Q  E E Q  Q
|--9-------9--9---------|-----------------------|-----------------------|--7-------7--7---------|
|-----------------------|--7-------7--7---------|--7-------7--7---------|-----------------------|
|-----------------------|-----------------------|-----------------------|-----------------------|
|-----------------------|-----------------------|-----------------------|-----------------------|


  Q  E E Q  Q    Q  E E Q  Q    Q  E E Q  Q    Q  E E Q  Q
|--9-------9--9---------|-----------------------|-----------------------|--7-------7--7---------|
|-----------------------|--7-------7--7---------|--7-------7--7---------|-----------------------|
|-----------------------|-----------------------|-----------------------|-----------------------|
|-----------------------|-----------------------|-----------------------|-----------------------|


  Q  E E Q  Q    Q  E E Q  Q    Q  E E Q  Q    Q  E E Q  Q
|--9-------9--9---------|-----------------------|-----------------------|--7-------7--7---------|
|-----------------------|--7-------7--7---------|--7-------7--7---------|-----------------------|
|-----------------------|-----------------------|-----------------------|-----------------------|
|-----------------------|-----------------------|-----------------------|-----------------------|


  Q  E E Q  Q
|--9-------9--9---------||
|-----------------------||
|-----------------------||
|-----------------------||



Duration 🏷Legend
---------------
W - whole
H - half
Q - quarter
E - 8th
. - note dotted

Almost there ...

Sign in to get your own page with links to favourite songs and more. You are just one click away...

Login with Facebook Login with Google