Log in

One click and you are in

Login with Facebook Login with Google

Why sign up and log in

Guitar Tabs Explorer
ABBA bass tabs for Another town another train

Bass tabs with lyrics

Tuning: Standard (E A D G)

Key: C

Difficulty: Novice

Album: Ring Ring
Year: 1973
Written by: Benny Andersson and Björn Ulvaeus
Bass: Rutger Gunnarsson

The song is actually tuned a little below E standard. About 25 cents or 1/4 of a semitone.
   INTRO
   Q.   Q.   Q    Q.   Q.   Q    Q.   Q.   Q    Q.   Q.   Q
G||-----------------------|----------------------|----------------------|---------------------|
D||-----------------------|----------------------|----------------------|---------------------|
A||-----------------------|----------------------|----------------------|---------------------|
E||--/8------8------3S----|--8------8------3S----|--8------8------3S----|--8------8------3----|


 VERSE
  Q   E E Q  Q    Q  E E Q  Q    Q  E E Q  Q    Q  E E Q  Q
|------------------------|-----------------------|-----------------------|-----------------------|
|------------------------|-----------------------|-----------------------|--2-------2------------|
|--3--------3--3---------|-----------------------|--3-------3------------|-------------0---------|
|------------------------|--3-------3--3---------|-------------3---------|------------------3----|


  Q  E E Q  Q    Q  E E Q  Q    Q  E E Q  Q    Q  E E E E Q
|-----------------------|-----------------------|-----------------------|------------------------|
|-----------------------|-----------------------|-----------------------|------------------------|
|-----------------------|--3-------3--3---------|--5-------5--5---------|----------------0--2----|
|--1-------1--1---------|-----------------------|-----------------------|--3-------3-------------|

  Q  E E Q  Q    Q  E E Q  Q    Q  E E Q  Q    Q  E E Q  Q
|-----------------------|-----------------------|-----------------------|-----------------------|
|-----------------------|-----------------------|-----------------------|--2-------2------------|
|--3-------3--3---------|-----------------------|--3-------3------------|-------------0---------|
|-----------------------|--3-------3--3---------|-------------3---------|------------------3----|


  Q  E E Q  Q    Q  E E Q  Q    Q  E E Q  Q    Q  E E Q  Q
|-----------------------|-----------------------|-----------------------|-----------------------|
|-----------------------|-----------------------|-----------------------|-----------------------|
|-----------------------|--3-------3--3---------|--5-------5--5---------|--0-------0--0---------|
|--1-------1--1---------|-----------------------|-----------------------|-----------------------|


                           CHORUS
  Q  E E Q  E E   Q  E E E E Q     E   E Q  E E E E   E E E E E E E E
|------------------------|------------------------||------------------------------|--------------------------|
|------------------------|------------------------||*-----------------------------|--------------------------|
|--5-------5--5-------5--|-------------------2----||*--3------3-------------------|--------------3--3--------|
|------------------------|--3-------3-----3-------||------------------3--3-----3--|--1--1-----1-----------1--|


  E E E E E E E E   Q  E E Q  E E   E E E E E E E E   E E E E E E E E
|--------------------------|------------------------|--------------------------|--------------------------|
|--------------------------|------------------------|--------------------------|--------------------------|
|--------------3--3--------|--3-------3--3----------|--------------3--3--------|--------------3--3--------|
|--1--1-----1-----------1--|---------------------3--|--1--1-----1-----------1--|--1--1-----1-----------1--|


  E E E E E E E E   E E E E E E E E    E E E E E E E E   E E E E Q  Q
|--------------------------|---------------------------||--------------------------|-------------------------|
|--------------------------|--------------------------*||--------------------------|-------------------------|
|--3--3-----3--------------|--3--3-----3--------------*||--------------5--5-----5--|--------------5----------|
|--------------3--3-----3--|--------------3--3-----3---||--3--3-----3--------------|--3--3-----3-------3S----|


 INTERLUDE
  Q.    Q.   Q    Q.   Q.   Q    Q.   Q.   Q    Q.   Q.   Q
|-------------------------|----------------------|----------------------|---------------------|
|-------------------------|----------------------|----------------------|---------------------|
|-------------------------|----------------------|----------------------|---------------------|
|--8---------8------3S----|--8------8------3S----|--8------8------3S----|--8------8------3----|


 VERSE
  Q   E E Q  Q    Q  E E Q  Q    Q  E E Q  Q    Q  E E Q  Q
|------------------------|-----------------------|-----------------------|-----------------------|
|------------------------|-----------------------|-----------------------|--2-------2------------|
|--3--------3--3---------|-----------------------|--3-------3------------|-------------0---------|
|------------------------|--3-------3--3---------|-------------3---------|------------------3----|


  Q  E E Q  Q    Q  E E Q  Q    Q  E E Q  Q    Q  E E E E Q
|-----------------------|-----------------------|-----------------------|------------------------|
|-----------------------|-----------------------|-----------------------|------------------------|
|-----------------------|--3-------3--3---------|--5-------5--5---------|----------------0--2----|
|--1-------1--1---------|-----------------------|-----------------------|--3-------3-------------|


  Q  E E Q  Q    Q  E E Q  Q    Q  E E Q  Q    Q  E E Q  Q
|-----------------------|-----------------------|-----------------------|-----------------------|
|-----------------------|-----------------------|-----------------------|--2-------2------------|
|--3-------3--3---------|-----------------------|--3-------3------------|-------------0---------|
|-----------------------|--3-------3--3---------|-------------3---------|------------------3----|


  Q  E E Q  Q    Q  E E Q  Q    Q  E E Q  Q    Q  E E Q  Q
|-----------------------|-----------------------|-----------------------|-----------------------|
|-----------------------|-----------------------|-----------------------|-----------------------|
|-----------------------|--3-------3--3---------|--5-------5--5---------|--0-------0--0---------|
|--1-------1--1---------|-----------------------|-----------------------|-----------------------|


                           CHORUS
  Q  E E Q  Q    Q  E E E E Q     E   E Q  E E E E   E E E E E E E E
|-----------------------|------------------------||------------------------------|--------------------------|
|-----------------------|------------------------||*-----------------------------|--------------------------|
|--5-------5--5---------|-------------------2----||*--3------3-------------------|--------------3--3--------|
|-----------------------|--3-------3-----3-------||------------------3--3-----3--|--1--1-----1-----------1--|


  E E E E E E E E   Q  E E Q  E E   E E E E E E E E   E E E E E E E E
|--------------------------|------------------------|--------------------------|--------------------------|
|--------------------------|------------------------|--------------------------|--------------------------|
|--------------3--3--------|--3-------3--3----------|--------------3--3--------|--------------3--3--------|
|--1--1-----1-----------1--|---------------------3--|--1--1-----1-----------1--|--1--1-----1-----------1--|


  E E E E E E E E   E E E E E E E E    E E E E E E E E   E E E E Q  Q
|--------------------------|---------------------------||--------------------------|-------------------------|
|--------------------------|--------------------------*||--------------------------|-------------------------|
|--3--3-----3--------------|--3--3-----3--------------*||--------------5--5-----5--|--------------5----------|
|--------------3--3-----3--|--------------3--3-----3---||--3--3-----3--------------|--3--3-----3-------3S----|


 INTERLUDE                     OUTRO
  Q.    Q.   Q    Q.   Q.   Q     E   E Q  E E E E   E E E E E E E E
|-------------------------|---------------------||-----------------------------|--------------------------|
|-------------------------|---------------------||*----------------------------|--------------------------|
|-------------------------|---------------------||*--3-----3-------------------|--------------3--3--------|
|--8---------8------3S----|--8------8------3----||-----------------3--3-----3--|--1--1-----1-----------1--|


  E E E E E E E E   Q  E E Q  E E   E E E E E E E E   E E E E E E E E
|--------------------------|------------------------|--------------------------|--------------------------|
|--------------------------|------------------------|--------------------------|--------------------------|
|--------------3--3--------|--3-------3--3----------|--------------3--3--------|--------------3--3--------|
|--1--1-----1-----------1--|---------------------3--|--1--1-----1-----------1--|--1--1-----1-----------1--|


  E E E E E E E E   E E E E E E E E
|--------------------------|---------------------------||
|--------------------------|--------------------------*||
|--3--3-----3--------------|--3--3-----3--------------*||
|--------------3--3-----3--|--------------3--3-----3---||



Duration 🏷Legend
---------------
W - whole
H - half
Q - quarter
E - 8th
. - note dotted


Tablature 🏷Legend
----------------

S - shift slide (pick both notes)
/ - slide into from below or out of upwards
\ - slide into from above or out of downwards

|-------|
|*-----*| means repeat section
|*-----*|
|-------|

Almost there ...

Sign in to get your own page with links to favourite songs and more. You are just one click away...

Login with Facebook Login with Google