Log in

One click and you are in

Login with Facebook Login with Google

Why sign up and log in

Guitar Tabs Explorer
Abandoned Pools chords for The remedy

Guitar chords with lyrics

Artist : Abandoned Pools
Album : Humanistic
Title : The Remedy
Tryed to tanscribe: Pere
E-mail : pere_pasqual@ono.com

Ok, I hard searched for this tab and wasn't able to find it. Yesterday I
downloaded an acoustic version of this great song from its official web, and
then I tried to start tab something.
This is my REALLY FIRST attempt, and I know it stinks, probably its full of
errors, etc...
So hey, if I ever learn to play guitar, I promise to correct it :P. At least
it's useful to me
and let me have fun while trying to play it :). Maybe this is better than
something. Feel free to flame me at pere_pasqual@ono.com.
Standard tuning or so it seems.


intro (repeat 2 times):

A chord diagramE minorEm
0-----3----3-----
0-----3----3-----
1-----0----0-----
2-----2----2-----
2-----3----0-----
0-----0----0-----


verse: the same (repeat 4 times)

pre-chorus:

                          A chord diagramG+G  or A chord diagramG+G           A chord diagramD MajorD
3-------------3-----------3-----3-----------2
3-------------3-----------3-----3-----------3
0-------------0-----------0-----4-----------2
2-------------2-----------0-----5------------
3-------------0-----------2-----5------------
0-------------0-----------3-----3------------

Then you...   And I...    And he can go...  nothing...


                          A chord diagramG+G  or A chord diagramG+G           A chord diagramB minorBm
3-------------3-----------3-----3-----------2
3-------------3-----------3-----3-----------3
0-------------0-----------0-----4-----------4  (maybe this chord is wrong)
2-------------2-----------0-----5-----------4
3-------------0-----------2-----5-----------2
0-------------0-----------3-----3-----------2

Then you...   And I...    And he can go...  I care...


chorus (repeat 4 times):

A chord diagramE minorEm
0-------------------3---------3
0-------------------3---------3
1-----11\----7------0---------0
2-----11\----7------2---------2
2------9\----5------3---------0
0-------------------0---------0

      Say    this   world...  not so shallow...


Afther the chorus then he plays something like this:
-
-
-
0
2
2


then goes verse again


chorus

then he goes this kind of bridge (play 2 times):

     A chord diagramE minorEm
-----0
-----0
-----1
0----2
2----2
2----0

then pre-chorus


chorus

...and you can end with that "kind of bridge" I said before :P.
ⓘ Guitar chords for 'The Remedy' by Abandoned Pools, a male alternative rock artist from Thousand Oaks, CA. Abandoned Pools was born in 1970.

Almost there ...

Sign in to get your own page with links to favourite songs and more. You are just one click away...

Login with Facebook Login with Google