Log in

One click and you are in

Login with Facebook Login with Google

Why sign up and log in

Guitar Tabs Explorer
Aaliyah tabs for If your girl only knew

Guitar tabs

Tabbed by superman_420_69@hotmail.com

standard tuning     h= hammer on

This is one of the easiest songs I have ever tabbed in my life.
Im pretty sure its correct too, atleast to my ear.
Most of the song goes something like this....
E-------------------------------------------------------------------
B-------------------------------------------------------------------
G-------------------------------------------------------------------
D-------------------------------------------------------------------
A-----0-------------8-7-----8-10-----0-----------8-7---5h7---5h7----
E---5---0h5-7-0-7-8-----0-0------0-5---0h5-0-7-8-----0-----0-----0--

Heres the hard part of the song. After the top beat stops you have to
play this a bunch of times....

E-------------------------------------------------------------------
B-------------------------------------------------------------------
G----------------------------------7--------------------------------
D--7-7--7--7-7--7--7-7--7--7-7--7-----7-7---------------------------
A-------------------------------------------------------------------
E-------------------------------------------------------------------

Then the top parts blend together for the last part and I dont think
that it is possible to play on 1 guitar lol.

If you want me to tab something for you just email me, later.

_________________________________________________________________

ⓘ Guitar tab for 'If Your Girl Only Knew' by Aaliyah, Aaliyah Dana Haughton, a female r&b artist from Brooklyn, USA. Aaliyah was born in 1979. She passed away in 2001. Aaliyah was known for her good natured urban/r&b music.

Almost there ...

Sign in to get your own page with links to favourite songs and more. You are just one click away...

Login with Facebook Login with Google