Log in

One click and you are in

Login with Facebook Login with Google

Why sign up and log in

Guitar Tabs Explorer
A Tribe Called Quest bass tabs for Whateva will be

Whateva Will Be bass tab by A Tribe Called Quest

A Tribe Called Quest bass tabs for Whateva will be

Bass tabs

Tuning: Standard (E A D G)

Key: F

Difficulty: Intermediate
Intro:

G|-------------------------------------------|
D|-------------------------------------------|
A|-------------------------------------------|
E|---------------------------------------1-1-|

G|-------------------------------------------|
D|------------3------------------------------|
A|--------1-3-----3--------------------------|
E|1-1---------------1--3--4--4-----4---3---1-|  x2


Chorus:

G|-------------------------------------------|
D|------------3------------------------------|
A|--------1-3-----3------------------3-4-4---|
E|1-1---------------1--3--4--4-----4---------|


Verse 1:

G|-------------------------------------------|
D|------------3------------------------------|
A|--------1-3-----3--------------------------|
E|1-1---------------1--3--4--4-----4---3---1-|  x12

Chorus:

G|-------------------------------------------|
D|------------3------------------------------|
A|--------1-3-----3------------------3-4-4--3| (Notice extra last note)
E|1-1---------------1--3--4--4-----4---------|


Verse 2:

G|-------------------------------------------|
D|3----------------------------------3-------|
A|---3---------------------3-----1-3--------3|
E|-----1--3--4---3---3--4----1----------1----|  x5

G|-------------------------------------------|
D|3------------------------------------------|
A|---3---------------------3-----1-3---------|
E|-----1--3--4---3---3--4----1-------4--3--1-|

G|-------------------------------------------|
D|------------3------------------------------|
A|--------1-3-----3--------------------------|
E|1-1---------------1--3--4--4-----4---3---1-|  x6


Outro:

G|-------------------------------------------|
D|------------3------------------------------|
A|--------1-3-----3--------------------------|
E|1-1---------------1--3--4--4-----4---3---1-|  x4

Almost there ...

Sign in to get your own page with links to favourite songs and more. You are just one click away...

Login with Facebook Login with Google