GuitarTabsExplorer icon
GuitarTabsExplorer icon

Log in

Songbook

  • Log in to add and see bookmarks

Last visited songs

  • No songs visited yet...
Straight by A Place To Bury Strangers

Straight bass tab by A Place To Bury Strangers

Bass tabs

CHORUS
G|12-10-------------------|
D|------12-10-9-----------|
A|--------------10-777777-|
E|------------------------|

VERSE
G|------------------------|
D|---9------5----9--------|
A|777-757775-5777-75777--5|
E|---------------------57-|

BRIDGE
G|------------------------|
D|------------------------|
A|777777777777777777777777|
E|------------------------|


| / slide up
| \ slide down
| h hammer-on
| p pull-off
| ~ vibrato
| + harmonic
| x Mute note

[ Privacy | About us ]

Welcome to the guitar community

Why join and log in?
- Get songbook with favourite songs
- Get custom made front page
- Submit chords and tabs
- Submit guitar-cover videos
- Get a lot of thumbs up for your work

Songbook

Last visited songs

Site
Home
Search
Community
Submit chords

Video

No video for this page. Check out how you can submit guitar-cover videos here

Search tabs and chords

Browse by artist

A B C D E F G H I J K L M N O P Q R S T U V W X Y Z #


Menu

Search

Video

Bookmark

Login