GuitarTabsExplorer icon
GuitarTabsExplorer icon

Log in

Songbook

  • Log in to add and see bookmarks

Last visited songs

  • No songs visited yet...
Exploding Head by A Place To Bury Strangers

Exploding Head bass tab by A Place To Bury Strangers

Bass tabs

Intro:
G|---------------------------------|
D|---------------------------------|
A|---------------------------------|
E|--10\7--7-7--7-7--3/5--5-5--5-5--|(x8)

Verse:
G|---------------------------------|
D|---------------------------------|
A|---------------------------------|
E|--10\7--7-7--7-7--3/5--5-5--5-5--|(x8)

Chorus:
G|-------------------------------------------------------------|
D|-------------------------------------------------------------|
A|-------------------------------------------------------------|
E|--3--3-3-3-3-3/5--5-5-5-5-5/7--7-7-7-7-7/10--10-10-10-10-10--|

G|-------------------------------------------------------------|
D|-------------------------------------------------------------|
A|-------------------------------------------------------------|
E|--3--3-3-3-3-3/5--5-5-5-5-5/7--7-7-7-7-7--7--7-7-7-7-7-------|

G|-------------------------------------------------------------|
D|-------------------------------------------------------------|
A|-------------------------------------------------------------|
E|--3--3-3-3-3-3/5--5-5-5-5-5/7--7-7-7-7-7/10--10-10-10-10-10--|

G|-----------------------------|
D|-----------------------------|
A|-----------------------------|
E|--3--3-3-3-3-3/2--2-2-2-2-2--|


************************************

| / Slide up
| \ Slide down

[ Privacy | About us ]

Welcome to the guitar community

Why join and log in?
- Get songbook with favourite songs
- Get custom made front page
- Submit chords and tabs
- Submit guitar-cover videos
- Get a lot of thumbs up for your work

Songbook

Last visited songs

Site
Home
Search
Community
Submit chords

Video

No video for this page. Check out how you can submit guitar-cover videos here

Search tabs and chords

Browse by artist

A B C D E F G H I J K L M N O P Q R S T U V W X Y Z #


Menu

Search

Video

Bookmark

Login