Log in

One click and you are in

Login with Facebook Login with Google

Why sign up and log in

Guitar Tabs Explorer
A Perfect Circle tabs for Judith

Guitar tabs with lyrics

Corrections: Michael Mireles <Fitch1003@aol.com>

Band: A chord diagramA augmentedA Perfect Circle
Album: Mer De Noms
Composer: Billy Howerdell
Lyrics: Maynard James Keenan
Tabed by:DeadSmurf (Nathan Buchanan), ADOMUS
Notes:
Edited by: Michael Mireles

Standard Tuning

This is an altered version from the DeadSmurf, (Nathan Buchanan), tabs.
I am in no way taking the credit from anyone, merely submitting a version
of Judith where I have inserted minor details that may have been missed.
The Intro section, last time before verse, pre-chorus, and guitar riff
sections have been altered and added, respectively. I anyone has any questio=
ns
or comments please feel free to Email me at ADOMUS@YAHOO.COM .

drop A chord diagramD MajorD tuning 1 1/2 steps
low to high (A chord diagramBB A chord diagramF#F# b A chord diagramE MajorE A chord diagramG#G# A chord diagramC#C#)


Intro:

guitar1:2x     1/2 step bend
----------------------------------------------------------------------]
-------------------------------------15-15-\14------------------------]
-7-/-999---7/9-9^(9)---7/9/7/99999/--x--x---x-------------------------]
-x---xxx---x-x-x--x----x-x-x-xxxxx--/12-12-\11------------------------]
-5-/-777---5/7-7^(7)---5/7/5/77777/-----------------------------------]
----------------------------------------------------------------------]


guitar1:2x  w/delay  1/2 step bend             whole bend  w/feedback
--------------------------------------------][------------------------]
--------------------------------------------][------------------------]
-7-9-9-9---7-9-9^(9)-7-9-7-9-9-9-9-9--------][------------------------]
--------------------------------------5-5-5-][-5----------------------]
--------------------------------------------][---77-7^----------------]
--------------------------------------------][------------------------]


Verse:

guitar2:8x
 p.m...................................] p.m. 5th fret only 3x
----------------------------------------][----------------------------]
----------------------------------------][----------------------------]
----------------------------------------][----------------------------]
-0-2-2-2--0-2-2-2-2-2-0-2-2-2-2-2-5-5-5-][----------------------------]
-0-2-2-2--0-2-2-2-2-2-0-2-2-2-2-2-5-5-5-][----------------------------]
-0-2-2-2--0-2-2-2-2-2-0-2-2-2-2-2-5-5-5-][-5/-6/0---------------------]
             ^2nd guitar w/bass(feedback in background)


guitar1:3x                     play 4th time
-----------------------------][---------------------------------------]
-----------------------------][---------------------------------------]
-15----14----7-/-9999-/-10\9-][-14----13----16161616-/-19\11----------]
-x-----x-----x---xxxx---x--x-][-x-----x-----x-x-x-x----x--x-----------]
-13----12----5-/-7777-/-8-\7-][-12----11----14141414-/-17\9-----------]
-----------------------------][---------------------------------------]


 slide                                            increase 2oct. higher
---------------------------------------------------22-----------------]
-15/-17-/-22-/-15-/-20-/-17-/-22-/-15-/-20-/-17-/-22-/-15-/-20^-------]
----------------------------------------------------------------------]
----------------------------------------------------------------------]
----------------------------------------------------------------------]
----------------------------------------------------------------------]


guitar1:   slide on sec. guitar playing only on third string
----------------------------------------------------------------------]
----------------------------------------------------------------------]
-16--16161616/19\--14-/--13--13131313/16\-9---------------------------]
-x---x-x-x-x--x----x-----x---x-x-x-x------x---------------------------]
-14--14141414/17\--12-/--11--11111111/14\-7---------------------------]
----------------------------------------------------------------------]


guitar2:2x  w/slide                        gradually drop last note w/whammy
pedal
--------------------------------][------------------------------------]
-15-15-/-14---------------------][------------------------------------]
-15----/-14--7-/-9999-/-10\9----][-15-15\14--7-/-9999-/--10\9\7/9--7--]
-------------x---xxxx---x--x----][-x--x--x---x---xxxx----x--x-x-x--x--]
-------------5-/-7777-/-8-\7----][-13-13\12--5-/-7777-/--8-\7\5/7--5--]
--------------------------------][------------------------------------]


guitar2: 2oct. higher with 1st guitar
-------------------------------------------][-------------------------]
-------------------------------------------][-------------------------]
-7-9-9-9--7-9-9/15\9-7-9-7-9-9-9-9-9-4-4-4-][-4--6-7--6-7\-777777-9-2-]
-------------------------------------------][-------------------------]
-------------------------------------------][-------------------------]
-------------------------------------------][-------------------------]

guitar2:    1/4 b and r
 p.m.-------------]  p.m.-------]
-------------------][-------------------------------------------------]
-------------------][-------------------------------------------------]
-------------------][-------------------------------------------------]
-0-2--2--0-2-2^--2-][-22222/3333--------------------------------------]
-0-2--2--0-2-2^--2-][-22222/3333--------------------------------------]
-0-2--2--0-2-2^--2-][-22222/3333--------------------------------------]


                                 p.m.--------------------]
------------------------------][---------------------------------[----]
------------------------15--14][---------------------------------[----]
------------------------x---x-][---------------------------------[----]
-7/999--7/9/10/9--7/999-12--11][-0-2-2-2--0-2-3-2--0-2-2-2--5-5-5[----]
-5/777--5/7/8-/7--5/777-------][-0-2-2-2--0-2-3-2--0-2-2-2--5-5-5[----]
------------------------------][-0-2-2-2--0-2-3-2--0-2-2-2--5-5-5[5/78]


-----------------------------][---------------------------------------]
-----------------------------][---------------------------------------]
-15----14----7-/-9999-/-10\9-][-14----13----16161616-/-19\11----------]
-x-----x-----x---xxxx---x--x-][-x-----x-----x-x-x-x----x--x-----------]
-13----12----5-/-7777-/-8-\7-][-12----11----14141414-/-17\9-----------]
-----------------------------][---------------------------------------]


slide                                            increase 2oct. higher
---------------------------------------------------22-----------------]
-15/-17-/-22-/-15-/-20-/-17-/-22-/-15-/-20-/-17-/-22-/-15-/-20^-------]
----------------------------------------------------------------------]
----------------------------------------------------------------------]
----------------------------------------------------------------------]
----------------------------------------------------------------------]


slide on sec. guitar playing only on third string
----------------------------------------------------------------------]
----------------------------------------------------------------------]
-16--16161616/19\--14-/--13--13131313/16\-9---------------------------]
-x---x-x-x-x--x----x-----x---x-x-x-x------x---------------------------]
-14--14141414/17\--12-/--11--11111111/14\-7---------------------------]
----------------------------------------------------------------------]


slide
----------------------------------------------------------------------]
-171717/21\-15151515/--19\--17---17171717-151515/17--12121212--10101010
----------------------------------------------------------------------]
----------------------------------------------------------------------]
----------------------------------------------------------------------]
----------------------------------------------------------------------]


                                                raise 2oct.
----------------------------------------------------------------------]
-1717171717171717--1515151515151515--1919191919191919-----------------]
----------------------------------------------------------------------]
----------------------------------------------------------------------]
----------------------------------------------------------------------]
----------------------------------------------------------------------]


slide on sec. guitar playing only on third string
----------------------------------------------------------------------]
----------------------------------------------------------------------]
-16--16161616/19\--14-/--13--13131313/16\-9---------------------------]
-x---x-x-x-x--x----x-----x---x-x-x-x------x---------------------------]
-14--14141414/17\--12-/--11--11111111/14\-7---------------------------]
----------------------------------------------------------------------]


 slide                                            increase 2oct. higher
---------------------------------------------------22-----------------]
-15/-17-/-22-/-15-/-20-/-17-/-22-/-15-/-20-/-17-/-22-/-15-/-20^-------]
----------------------------------------------------------------------]
----------------------------------------------------------------------]
----------------------------------------------------------------------]
----------------------------------------------------------------------]
                                                 raise 2oct.


slide on 2nd guitar playing only on third string
----------------------------------------------------------------------]
----------------------------------------------------------------------]
-16--16161616/19\--14-/--13--13131313/16\-9---------------------------]
-x---x-x-x-x--x----x-----x---x-x-x-x------x---------------------------]
-14--14141414/17\--12-/--11--11111111/14\-7---------------------------]
----------------------------------------------------------------------]

Almost there ...

Sign in to get your own page with links to favourite songs and more. You are just one click away...

Login with Facebook Login with Google