Log in

One click and you are in

Login with Facebook Login with Google

Why sign up and log in

Guitar Tabs Explorer
A Perfect Circle bass tabs for Brena

Bass tabs

A Perfect Circle - Brea
  (album: Mer de Noms)
By Sean (mehedmb@aol.com)
TUNING: Db Ab Db Gb!!!


|-------14----15p14--14----14-------|-------14----15p14--14----14-------|
|---12----12--12---------12----12---|---12----12--12---------12----12---|
|-14-----------------------------14-|-14------------------------------0-|
|-----------------------------------|-----------------------------------|


|--------14-----------14----14-------|--------14-----14------|
|-/16--16--16\14-12-------12----12---|-/16--16--16-----------|
|---------------------------------14-|-----------------------|
|------------------------------------|-----------------------|


|-------14----15p14--14----14-------|-------14----15p14--14----14-------|
|---12----12--12---------12----12---|---12----12--12---------12----12---|
|-14-----------------------------14-|-14------------------------------0-|
|-----------------------------------|-----------------------------------|

                          (Drums, band in)
|--------14-----------14----14-------|-----------------------|
|-/16--16--16-------------12----12---|-----------------------|
|------------------------------------|-----------------------|
|------------------------------------|-----------------------|


Verse 1
|----------------------------------|------/4--------/4----|
|----.-----.---.-----.-----.-------|----------------------|
|-2--2--2--2--22--2--2--2--2--222--|----------------------| (2x)
|----------------4-----------4---3-|-4--4-----34--4-------|

|---("vulnerable...") Guitar's too messy/distorted.-----------|
|-----Your guess is as good as mine. Here are the roots:------|
|-------------0--2-(hold)----|------------0--3(hold until...)--|
|--440011--4-----------------|-440011--4-----------------------|


Verse 2: do Verse 1 once, then:
|------------------------------------|------/4--------/4----|
|----.-----.-----------.-----.-------|----------------------|
|-2--2--2--2--2/555\2--2--2--2--222--|----------------------|
|------------------------------4---3-|-4--4-----34--4-------|

Then the indecipherable "vulnerable..." part again.

Under the next solo, it's basically just alternating measures.
Wail away on your choice.
I'm putting several variations in for each:
|------------------------|-----------------------|
|------------------------|-----------------------|
|-2-----2/5\2----222-2---|-----------------------|
|-------------------4----|---4--4---34---4/99\4--|

Last time through, slide from your last F (prev. measure) to Bb:
|----------------------------|
|----------------------------|
|----------------------------|
|-//9--(and hold...)---------|

Almost there ...

Sign in to get your own page with links to favourite songs and more. You are just one click away...

Login with Facebook Login with Google