Log in

One click and you are in

Login with Facebook Login with Google

Why sign up and log in

Guitar Tabs Explorer
A Perfect Circle tabs for 3 libras

Guitar tabs

Band: A chord diagramA augmentedA Perfect Circle
Album: Mer De Noms
Tabbed by: Philip Wheeler <pheeler@yahoo.com>

Drop A chord diagramD MajorD Tuning
fingerpicked throughout
3/4 time

/:slide up
\:slide down
h:hammer on
p:pull off
~:vibrato
intro (clean)
E---------------------------------------------
B---------------------------------------------
G---------------------------------------------
D-9-----9-9-----9-9-----9-13-------13-9-------
A---7-------7-------7--------11---------7-----
D-7---7---7---7---7---7---11----11----7---7---

                              repeat   2nd
-------------------------------------|--------
-------------------------------------|--------
-------------------------------------|--------
--9-9-----9-/16-------16-13-------13-|-14-----
------7---------14----------13-------|----12--
----7---7---/14----14----11----13----|-12-----

																																		let ring
----------------------------------------------
----------------------------------------------
----------------------------------------------
-----14-14-------14-14-------14-14~-----------
-----------12----------12---------------------
--12----12----12----12----12----12~-----------

verse														               repeat
-----------------------------------------|----
-----------------------------------------|----
-----------------------------------------|----
--9-----9-9-----9-/11-----11-12-------12-|----
----7-------7---------9---------10-------|----
--7---7---7---7----/9---9----10----10----|----
(i threw you the obvious..)

4th time
-------------
-------------
-------------
-13-------13-
----11-------
-11----11----


chorus
----------------------------------------------
----------------------------------------------
----------------------------------------------
-9-----9-9-----9-9-----9-/16-------16--13-----
---7-------7-------7---------14-----------11--
-7---7---7---7---7---7---/14----14-----11-----

                    1st
-------------------|--------------------------
-------------------|--------------------------
-------------------|--------------------------
----13-13-------13-|-13------13-13-------13---
----------11-------|----11---------11---------
-11----11----11----|-11----11---11----11------

2nd
----------------------------------------------
----------------------------------------------
----------------------------------------------
-14-------14-14-------14-14-------14-14~------
----12----------12----------12----------------
-12----12----12----12----12----12----12~------


verse again


bridge (w/distortion)       4x
----------------------------------------------
----------------------------------------------
----------------------------------------------
-9-9-9--9-9-9--5-5-5--------------------------
-9-9-9--9-9-9--5-5-5--3-3-3-------------------
-7-7-7--7-7-7--3-3-3--3-3-3-------------------
----------------------3-3-3-------------------
(so i threw...)


intro riff is played again
(oh well...)



The last time they play the A chord diagramA augmentedA A chord diagramD MajorD A chord diagramG+G there's a mildly
distorted electric guitar= =20 playing 12ths. I didn't
tab it out because i was only interested in an
acoustic version of the song, and Michael has a pretty
good version.

Here's what he had in his version:


outro:             (2x)
-------------------------------------------------
-------------------------------------------------
-6-6-6-6/4---4---4---4\6-6-6-6\8---8---8---8/----
-------------------------------------------------
-4-4-4-4/2---2---2---2\4-4-4-4\6---6---6---6/----
-------------------------------------------------
(you don't see me...)


-------------------------------------------------
-------------------------------------------------
-11--111111/13-13-13-13-13-13/16-16-16-16-16-16--
-------------------------------------------------
-9---9-9-9-/11-11-11-11-11-11/14-14-14-14-14-14--
-------------------------------------------------

------------------------------------------------------------------
------------------------------------------------------------------
-9-9\8---8---8---8\6-6-6-6\4---4---4---4/6-6-6-6\4---4---4---4\---
----------------------------------------------------------------2-
-7-7\6---6---6---6\4-4-4-4\2---2---2---2/4-4-4-4\2---2---2---2\-0-
------------------------------------------------------------------



this version is in regular tuning.

Band         -      A chord diagramA augmentedA Perfect Circle
Song         -      3 Libras (w-out dropping A chord diagramE MajorE - A chord diagramD MajorD)
Album        -      Mer De Noms
Tabulated by -      Cameron Spencer <cameron@oscillator.com.au>

Transposed by listening and playing along to the original recording.

Note: The rythm is as close as I can get without spending too much
time on it. Any updates would be very welcome.

Normal Tuning (A chord diagramA augmentedA - 440)


\ - Slide (down in tune-like)


^
|
|
| - Strumed downward
|
|


CHORDS:

  Asus2:         Dsus2:        A chord diagramE MajorE major:
(or A chord diagramAadd9Aadd9)     (or A chord diagramDadd9Dadd9)        (A chord diagramE MajorE)
   -0-            -0-            -0-
   -0-            -3-            -0-
   -2-            -2-            -1-
   -2-            -0-            -2-
   -0-            -0-            -2-
   -0-            -0-            -0-





INTRO
4/4
  1 - + - 2 - + - 3 - + - 4 - + - 1 - + - 2 - + - 3 - + - 4 - + -
E-----------------------------------------------------------------
B-0---------0-----0---------0-----0---------0-----4---------4-----
G-----------------------------------------------------------------
D-------2---------------2---------------2---------------6---------
A-0-------0-------0-------0-------0-------0-------4-------4-------
E-----------------------------------------------------------------


  1 - + - 2 - + - 3 - + - 4 - + - 1 - + - 2 - + - 3 - + - 4 - + -
 -----------------------------------------------------------------
 -0---------0-----0---------0-----7---------7-----4---------4-----
 -----------------------------------------------------------------
 -------2---------------2---------------9---------------6---------
 -0-------0-------0-------0-------7-------7-------4-------4-------
 -----------------------------------------------------------------


  1 - + - 2 - + - 3 - + - 4 - + - 1 - + - 2 - + - 3 - + - 4 - + -
 -----------------------------------------------------------------
 -0---------0-----0---------0-----0---------0-----4---------4-----
 -----------------------------------------------------------------
 -------2---------------2---------------2---------------6---------
 -0-------0-------0-------0-------0-------0-------4-------4-------
 -----------------------------------------------------------------


  1 - + - 2 - + - 3 - + - 4 - + - 1 - + - 2 - + - 3 - + - 4 - + -
 -----------------------------------------------------------------
 -0---------0-----0---------0-----7---------7-----4---------4-----
 -----------------------------------------------------------------
 -------2---------------2---------------9---------------6---------
 -0-------0-------0-------0-------7-------7-------4-------4-------
 -----------------------------------------------------------------


  1 - + - 2 - + - 3 - + - 4 - + - 1 - + - 2 - + - 3 - + - 4 - + -
 -----------------------------------------------------------------
 -5---------5-----5---------5-----5---------5-----5-^-------------
 -------------------------------------------------7-|-------------
 -------7---------------7---------------7---------7-|-------------
 -5-------5-------5-------5-------5-------5-------5-|-------------
 -----------------------------------------------------------------
                                             (slow downward strum)
                 (or upward if your hanging your head upside down)



VERSE
(extra picking occurs in the verse, you might want to ad. lib
 according to your abilities - also, the feel seems different
 because of the drums, if you have trouble, try playing it as
 though you were playing in 3/4 at a faster tempo)
  1 - + - 2 - + - 3 - + - 4 - + - 1 - + - 2 - + - 3 - + - 4 - + -
 -----------------------------------------------------------------
 -0---------0-----0---------0-----2---------2-----3---------3-----
 -----------------------------------------------------------------
 -------2---------------2---------------4---------------0---------
 -0-------0-----------------------2-------2-----------------------
 -----------------0-------0-----------------------3-------3-------
(.threw you the...)

(play VERSE 4 times)


MINI BRIDGE
2/4
  1 - + - 2 - + -
 -----------------
 -4---------4-----
 -----------------
 -------6---------
 -4-------4-------
 -----------------


BRIDGE
4/4
  1 - + - 2 - + - 3 - + - 4 - + - 1 - + - 2 - + - 3 - + - 4 - + -
 -------------------------------------------------2---------2-----
 -0---------0-----0---------0-----0---------0---------------------
 -----------------------------------------------------------------
 -------2---------------2---------------2---------------4---------
 -0-------0-------0-------0-------0-------0-------2-------2-------
 -----------------------------------------------------------------
(.If it comes out...)
(.Here I am...)

  1 - + - 2 - + - 3 - + - 4 - + - 1 - + - 2 - + - 3 - + - 4 - + -
 -----------------------------------------------------------------
 -4---------4-----4---------4-----4---------4-----4---------4-----
 -----------------------------------------------------------------
 -------6---------------6---------------6---------------6---------
 -4-------4-------4-------4-------4-------4-------4-------4-------
 -----------------------------------------------------------------


  1 - + - 2 - + - 3 - + - 4 - + - 1 - + - 2 - + - 3 - + - 4 - + -
 -------------------------------------------------2---------2-----
 -0---------0-----0---------0-----0---------0---------------------
 -----------------------------------------------------------------
 -------2---------------2---------------2---------------4---------
 -0-------0-------0-------0-------0-------0-------2-------2-------
 -----------------------------------------------------------------


  1 - + - 2 - + - 3 - + - 4 - + - 1 - + - 2 - + - 3 - + - 4 - + -
 -----------------------------------------------------------------
 -4---------4-----4---------4-----5---------5-----5---------5-----
 -----------------------------------------------------------------
 -------6---------------6---------------7---------------7---------
 -4-------4-------4-------4-------5-------5-------5-------5-------
 -----------------------------------------------------------------
                    (...but oblivious)
(wait for drum cue)
                          (...see you...           ...cause I...)


PLAY   VERSE -> MINI BRIDGE -> BRIDGE ->


CHORUS

  1 - + - 2 - + - 3 - + - 4 - + -
  A chord diagramE MajorE major         A chord diagramDsus2Dsus2   A chord diagramAsus2Asus2
(.threw you...)          (...just to...)
(play 4 times)


INTRO-OUTRO
(that is to say the following is the same as the intro up until
 the final bar, where the distortion guitar takes over)
4/4
  1 - + - 2 - + - 3 - + - 4 - + - 1 - + - 2 - + - 3 - + - 4 - + -
 -----------------------------------------------------------------
 -0---------0-----0---------0-----0---------0-----4---------4-----
 -----------------------------------------------------------------
 -------2---------------2---------------2---------------6---------
 -0-------0-------0-------0-------0-------0-------4-------4-------
 -----------------------------------------------------------------
(..oh well...)

  1 - + - 2 - + - 3 - + - 4 - + - 1 - + - 2 - + - 3 - + - 4 - + -
 -----------------------------------------------------------------
 -0---------0-----0---------0-----7---------7-----4---------4-----
 -----------------------------------------------------------------
 -------2---------------2---------------9---------------6---------
 -0-------0-------0-------0-------7-------7-------4-------4-------
 -----------------------------------------------------------------


  1 - + - 2 - + - 3 - + - 4 - + - 1 - + - 2 - + - 3 - + - 4 - + -
 -----------------------------------------------------------------
 -0---------0-----0---------0-----0---------0-----4---------4-----
 -----------------------------------------------------------------
 -------2---------------2---------------2---------------6---------
 -0-------0-------0-------0-------0-------0-------4-------4-------
 -----------------------------------------------------------------


  1 - + - 2 - + - 3 - + - 4 - + - 1 - + - 2 - + - 3 - + - 4 - + -
 -----------------------------------------------------------------
 -0---------0-----0---------0-----7---------7-----4---------4-----
 -----------------------------------------------------------------
 -------2---------------2---------------9---------------6---------
 -0-------0-------0-------0-------7-------7-------4-------4-------
 -----------------------------------------------------------------


  1 - + - 2 - + - 3 - + - 4 - + - 1 - + - 2 - + - 3 - + - 4 - + -
 -----------------------------------------------------------------
 -5---------5-----5---------5-----5-------------------------------
 -----------------------------------------6-------6-------6---\---
 -------7---------------7---------------7-x-------x-------x-------
 -5-------5-------5-------5-------5-------4-------4-------4---\---
 -----------------------------------------------------------------
                                          ^ distortion guitar

(the strumming and sliding rythms are a little complex for me to
 have the patience to write down, this is still a good guide to
 the basic rythm, though)

  1 - + - 2 - + - 3 - + - 4 - + - 1 - + - 2 - + - 3 - + - 4 - + -
 -----------------------------------------------------------------
 -----------------------------------------------------------------
 -4-----------------------6-------8-------------------------------
 -x-----------------------x-------x-------------------------------
 -2-----------------------4-------6-------------------------------
 -----------------------------------------------------------------
   (...you don't...)

  1 - + - 2 - + - 3 - + - 4 - + - 1 - + - 2 - + - 3 - + - 4 - + -
 -----------------------------------------------------------------
 -----------------------------------------------------------------
 -6-------4---------------6-------8-------------------------------
 -x-------x---------------x-------x-------------------------------
 -4-------2---------------4-------6-------------------------------
 -----------------------------------------------------------------


  1 - + - 2 - + - 3 - + - 4 - + - 1 - + - 2 - + - 3 - + - 4 - + -
 -----------------------------------------------------------------
 -----------------------------------------------------------------
 -9-------13----------------------16--------------9---8-----------
 -x-------x-----------------------x---------------x---x-----------
 -7-------11----------------------14--------------7---6-----------
 -----------------------------------------------------------------


  1 - + - 2 - + - 3 - + - 4 - + - 1 - + - 2 - + - 3 - + - 4 - + -
 -----------------------------------------------------------------
 -----------------------------------------------------------------
 -6-------4---------------6-------4-----------------------7-------
 -x-------x---------------x-------x-----------------------7-------
 -4-------2---------------4-------2-----------------------5-------
 -----------------------------------------------------------------
                                                   (...at all.)

  1 - + - 2 - + - 3 - + - 4 - + -
 ---------------------------------
 ---------------------------------
 -7-------------------------------
 -7-------------------------------
 -5-------------------------------
 -5-------------------------------

Other versions of 3 Libras

3 libras acousticTabs

Almost there ...

Sign in to get your own page with links to favourite songs and more. You are just one click away...

Login with Facebook Login with Google