Log in

One click and you are in

Login with Facebook Login with Google

Why sign up and log in

Guitar Tabs Explorer
A N O A chords for World of hurt

Guitar chords

Band:A.N.O.A.
Album:Pleph

h=hammer-on     p=pull-off   ( )=let ring

|--------------|
|--------------|
|-4------------|
|-4-444-555-444| Verse
|-2-444-555-444|
|---222-333-222|

|-------------------------------------------------------------------|
|-------------------------------------------------------------------|
|-77-777-55-555-----------------------77-777-55-555---0-0-1h2p0-----|
|-77-777-55-555--pause-for-bass-------77-777-55-555-------------(2)-|
|-55-555-33-333-----------------xx-xx-55-555-33-333-----------------|
|-------------------------------xx-xx-------------------------------|<---
                                                                       |
|------------------------------------------------------------|         |--Chorus
|---------------77-66----------------------------------------|         |
|-77-777-55-555-77-66-9999-9999--77-777-55-555--44-4h3h2p0---|<----------
|-77-777-55-555-55-44-9999-9999--77-777-55-555-------------2-|
|-55-555-33-333-------7777-7777--55-555-33-333---------------|
|------------------------------------------------------------|

Order


Verse x4

Chorus x2

Verse x8

Chorus x1

Verse x8

Chorus x2

Verse x2

Almost there ...

Sign in to get your own page with links to favourite songs and more. You are just one click away...

Login with Facebook Login with Google